» » »

Oceans End Tabs (ver.1)

Artists:  A B C D E F G H I J K L M N O P Q R S T U V W X Y Z # 

Oceans End Tabs (ver.1)

The Trews
Rating:
0/5 (0 votes)

Tabs too difficult? Try these video lessons and learn fast.
                			     Ocean's End - The Trews

Tuning:Standard
Intro
Guitar 1
e|----------------------------------------------------|
B|----------------------------------------------------|
G|--7-7-7-7--7-7-7-7-7--7-7-7-7-7--7-7-7-7-7----------|
D|--7-7-7-7--7-7-7-7-7--7-7-7-7-7--7-7-7-7-7----------|
A|----------------------5-5-5-5-5---------------------|
E|----------------------------------------------------|

Guitar 2
e|-------------------------|
B|-7-10-7------------------|
G|-7-7--7-7-7-7h9-7--------|
D|--------7----------------|
A|-------------------------|
E|-------------------------|

Verse 1
e|----------------------------------------------------|
B|----------------------------------------------------|
G|--7-7-7-7--7-7-7-7-7--7-7-7-7-7--7-7-7-7-7----------|
D|--7-7-7-7--7-7-7-7-7--7-7-7-7-7--7-7-7-7-7----------|
A|----------------------5-5-5-5-5---------------------|
E|----------------------------------------------------|

e|-----------------------------------------------|
B|-------------------------------------------xxxx|
G|-------------------------------------------xxxx|
D|-----2-4-5-9-7---------2-4-5-9-7--4~-3~-2~-xxxx|
A|-----2-4-5-9-7---------2-4-5-9-7-----------xxxx|
E|-3-2-0-2-3-7-5---3-2-0-2-3-7-5-----------------|
Play this during the beginning of verse two
e|-------------------------|
B|-7-10-7------------------|
G|----------7-9-7----------|
D|--------7----------------|
A|-------------------------|
E|-------------------------|

Chorus
Guitar 1
e|-------------------------------------------|
B|-------------------------------------------|
G|----7---7-----7----------------------------|
D|----7-7-7---5-7-7----777-7-7-7-7-----------|
A|----5-7-5---5-5-7----777-7-7-7-7-----------|
E|------5-----3---5----555-5-5-5-5-----------|
Guitar 2
e|-------10-------|
B|--10------------|
G|-----7----7-----|
D|----------------|
A|----------------|
E|----------------|

Interlude/Outro
e|-9----11--------|
B|---12----12-----|
G|----------------|
D|----------------|
A|----------------|
E|----------------|

| /  slide up
| \  slide down
| h  hammer-on
| p  pull-off
| ~  vibrato
| +  harmonic
| x  Mute note
            
Tabs too difficult? Try these video lessons and learn fast.


comments powered by Disqus
↑ Back to top | Tablatures and chords are parodies/interpretations of the original songs. You may use it for private study, scholarship, research or language learning purposes only