» » »

Locked Doors Chords (ver.1)

Artists:  A B C D E F G H I J K L M N O P Q R S T U V W X Y Z # 

Locked Doors Chords (ver.1)

The Trews
Rating:
5/5 (1 vote)
Tabs too difficult? Try these video lessons and learn fast.
                hey guys,
This is another requested one of the Trews tunes off they're acoustic performance 
album. just figured out the chords for of the guitars. i think the second just has 
capo fifth fret with the chords in higher octave, along with random fills. but for 
the most part, playing it with one guitar sounds fine. The lyrics again aren't too 
accurate but i tried. here's what i got, enjoy:

INTRO/VERSE PROGRESSION (easy strumming pattern to figure out)

      F         Cadd11 C
e]---(1)---------(0)---(0)---|
B]---(1)---------(1)---(1)---|
G]---(2)0h2------(0)---(0)---|    x2
D]---(3)---------(3)---(2)---|
A]---(3)---------(3)---(3)---|
E]---------------------------|

      Bb   Bb/A  Bb/G  Bb/A  Cadd11 C     F          Cadd11  C
e]----------------------------(0)--(0)-|--(1)---------(0)-(0)---|
B]----------------------------(1)--(1)-|--(1)---------(1)-(1)---|
G]---(3)---(3)---(3)---(3)----(0)--(0)-|--(2)0h2------(0)-(0)---|
D]---(3)---(3)---(3)---(3)----(3)--(2)-|--(3)---------(3)-(2)---|
A]---(1)---(0)----x-----x-----(3)--(3)-|--(3)---------(3)-(3)---|
E]---------------(3)---(1)-------------|------------------------|


1st CHORUS
      Bb    C     Dm         Bb    C     F
e]--------------------------------------(1)------------------|
B]---------------(6)--------------------(1)------------------|
G]---(3)---(5)---(7)--------(3)---(5)---(2)------------------|
D]---(3)---(5)---(7)--------(3)---(5)---(3)------------------|
A]---(1)---(3)---(5)--------(1)---(3)---(3)------------------|
E]-----------------------------------------------------------|

2nd CHORUS

      Bb    C     Dm         Bb    C     F5
e]--------------------------------------(3)------------------|
B]---------------(6)--------------------(6)------------------|
G]---(3)---(5)---(7)--------(3)---(5)---(5)------------------|
D]---(3)---(5)---(7)--------(3)---(5)---(3)------------------|
A]---(1)---(3)---(5)--------(1)---(3)---(3)------------------|
E]-----------------------------------------------------------|

BRIDGE 
      F      Eb    D         F
e]--------------------------(1)--------------------|
B]----------------(x)-------(1)--------------------|
G]---(10)---(8)---(7)-------(2)--------------------|
D]---(10)---(8)---(7)-------(3)--------------------|
A]---(8)----(6)---(5)-------(3)--------------------|
E]-------------------------------------------------|



LYRICS

Verse 1:
F                                             Cadd11   C
When the time is right I'll make my way back home.
F                                             Cadd11   C
To the ocean side and the town I've always known
  Bb     Bb/A     Bb/G      Bb/A   Cadd11 C 
I'm tired of the loneliness I've found
F                                    Cadd11   C
Its time I get my feet on solid ground


1st Chorus:
   Bb         C      Dm
We found a lot of locked doors.
    Bb        C       F
We've got a lot to learn babe



Verse 2:
F                                                   Cadd11   C
Got a shiver in my spine when I heard you were moving on
F                                                   Cadd11   C
With a feeling so familiar I couldn’t go on
Bb     Bb/A       Bb/G       Bb/A            Cadd11 C  
So I packed my bags and I'm heading for the east coast
F                                                   Cadd11   C
So ill have the time to think the most


2nd Chorus
Bb         C      Dm
We found a lot of locked doors.
Bb         C      F
We've got a lot to learn babe
Bb         C      Dm
We've got a lot to live for
Bb         C      F5
I'm with you its okay

Bridge:
F               Eb           D                   F
There's a place we can go, Where will live and can grow
F               Eb           D                   F
Way up high, on a hill, With a horse…(DON’T KNOW THE REST OF LYRICS)

Verse:
F                                Cadd11   C
Come back so long, and I remember you
F                               Cadd11   C
Come back so long and you remember me too,

CHORUS: 
Bb         C      Dm
We found a lot of locked doors.
Bb         C      F
We've got a lot to learn babe
Bb         C      Dm
We've got a lot to live for
Bb         C      F5
I'm with you its okay

Bb         C      Dm
We found a lot of locked doors.
Bb         C      F
We've heard a lot of false claims
Bb         C      Dm
We've got a lot to live for
Bb         C      F5
I'm with you its okay


Bb         C      Dm or F
I'm with you its okay x 5




*ENJOY!!
            
Tabs too difficult? Try these video lessons and learn fast.


comments powered by Disqus
↑ Back to top | Tablatures and chords are parodies/interpretations of the original songs. You may use it for private study, scholarship, research or language learning purposes only