» » »

Im Not Ready To Go Tabs (ver.2)

Artists:  A B C D E F G H I J K L M N O P Q R S T U V W X Y Z # 

Im Not Ready To Go Tabs (ver.2)

The Trews
Rating:
0/5 (0 votes)

Tabs too difficult? Try these video lessons and learn fast.
                (Intro)
very easy my first tab i'm only 12 and been playing for 2 years


 e-----------------------------|
 b-----------------------------|
 g-----------------------------|
 d-0-0-2-0-0-0-2-0-0-----0-2-4-|
 a------------------0-2-4------|
 E-----------------------------|

 e------------------------------------------|
 b------------------------------------------|
 g------------------------------------------|
 d-2-2-4-2-2-2-4-2-2-----0-2-4-0------------|
 a------------------0-2-4-------------------|
 E------------------------------------------|


 a great a song by a great nova scotian band i love to be from Nova Scotia
            
Tabs too difficult? Try these video lessons and learn fast.




comments powered by Disqus
↑ Back to top | Tablatures and chords are parodies/interpretations of the original songs. You may use it for private study, scholarship, research or language learning purposes only