» » »

Fleeting Trust Tabs (ver.1)

Artists:  A B C D E F G H I J K L M N O P Q R S T U V W X Y Z # 

Fleeting Trust Tabs (ver.1)

The Trews
Rating:
2/5 (7 votes)

Tabs too difficult? Try these video lessons and learn fast.
                Pretty straight forward song but couldn't get the solo 
(wonder why)                     

/= Break
b=Bend
s= Slide


Guitar 1   (guitar 2 is the same but you strum constantly)
Intro
e|---------------------------------------------------|
B|---------------------------------------------------|
G|-----6---6--6--6---/-6--6--6--6--/-----------------|
D|-----6---6--6--6--/--6--6--6--6-/------------------|
A|----4---4--4--4--/--4--4--4--4-/-------------------|
E|---------------------------------------------------|

Verse
e|-----------------------------------------------------------------|
B|-----------------------------------------------------------------|
G|----6---6--6--6--/-6-6-6-6--/-6-6-6-6--/-6-6-6-6--/--------------|
D|----6---6--6--6-/--6-6-6-6-/--6-6-6-6-/--6-6-6-6-/--2--2--2--2--/|
A|---4---4--4--4-/--4-4-4-4-/--4-4-4-4-/--4-4-4-4-/---2--2--2--2-/-|
E|---------------------------------------------------0--0--0--0-/--|


e|----------------------------------------------------------------|
B|----------------------------------------------------------------|
G|-----------------6--6--6--6--/----------------------------------|
D|--4--4--4--4--/--6--6--6--6-/---------Play 2x-------------------|
A|--4--4--4--4-/--4--4--4--4-/------------------------------------|
E|-2--2--2--2-/---------------------------------------------------|

Chorus
e|----0---------------------0-------------------------------------|
B|----5---------------------5-------------------------------------|
G|-----6----------3----------6------------3-----------------------|
D|-----6----2------4---------6-----2-------4----------------------|
A|---4------2------4-------4-------2-------4----------------------|
E|---------0-----2----------------0------2------------------------|
After chorus go back to intro and then verse.


After 2nd Chorus
e|-------------------------------------------------------------|
B|-------------------------------------------------------------|
G|------6--6--6--6--6--6--/-6--6--6--6--6--6-------------------|
D|------6--6--6--6--6--6-/--6--6--6--6--6--6---2--2--2--2--2--2|
A|-----4--4--4--4--4--4-/--4--4--4--4--4--4----2--2--2--2--2--2|
E|--------------------------------------------0--0--0--0--0--0-|
                                                                  } 2x

e|------------------------------------------------------------|
B|------------------------------------------------------------|
G|------------------------------------------------------------|
D|--4--4--4--4--4--4------------------------------------------|
A|--4--4--4--4--4--4------------------------------------------|
E|-2--2--2--2--2--2-------------------------------------------|


e|------------------------------------------------------------|
B|----------------------------------------------7-------------|
G|---------5s777----5s777--5s777--5s777-----------------------|SOLO
D|------------------------------------------------------------|
A|------------------------------------------------------------|
E|---------Guitar 2 plays normal chorus during solo-----------|

after solo, rest, 2x chorus and then end on....

e|-------------------------------------------------------------|
B|-------------------------------------------------------------|
G|-----6----6----6----6----------------------------------------|
D|-----6----6----6----6----------------------------------------|
A|---4----4-----4----4-----------------------------------------|
E|-------------------------------------------------------------|
You make sense of pain through constant motion
like a soldier on the frontline needs devotion
peace cry everything is just the ocean
and know that waves at sea are just a notion

Chorus-and your wrong and you know right away
and your wrong and you know right away
cause your wrong and you knew right away
and your wrong and you knew right away
cause your wrong and you knew right away 
and your wrong and you know you walk in and walk out with no pain and no doubt
--------------------------------------------------------
you took insignifigeneces omen
like a faithfull at the gate your always open
peace cry everything is just the ocean
and all ideas the waves are just a notion yah
-----------------
Chorus
-----------

With fleeting trust in hand with what i think i am
with the fleeting trust i walk in and walk out with no pain and no doubt
ya
SOLo
ya

With fleeting trust in hand with what i think i am with fleeting trust i walk in and walk
in and walk out with no pain and no doubt
-------------------------
Chorus       2x
-------------------------
END
            
Tabs too difficult? Try these video lessons and learn fast.


comments powered by Disqus
↑ Back to top | Tablatures and chords are parodies/interpretations of the original songs. You may use it for private study, scholarship, research or language learning purposes only