» » »

Tree, Try Bass tabs (ver.1)

Artists:  A B C D E F G H I J K L M N O P Q R S T U V W X Y Z # 

Try Bass tabs (ver.1)

Tree Tabs
Rating:
0/5 (0 votes)
Hard to play? Try these video lessons and learn fast.
                
"Try" by Tree - from the album "PLANT A TREE OR DIE"
                
                mail for corrections/suggestions/vga requests..

INTRO/VERSE
G.--------------------------------------------.
D.-----2--------------------------------------. repeat many times..
A.-----------------------5-----------------4--.
E.--0-----0--5--7--5--3-----3--0--2--3--2-----.
 
VARIATION (in 2nd verse i think, you'll find it..)
G.------------------------------------.
D.-----2------------------------------. 
A.------------------------------------. played 2x then back to verse
E.--0-----0--5--7--5--3---2--3--2--3--.

CHORUS
G.-----------------------------------------.
D.-----------------------------------------. played for awhile, till verse,
A.-----------------------------------------.                    some breaks
E.--0--0--0--3--2--1--0--0--0--0--3--2--1--.

that's most of it.. mail me@!#

---
! if you even listen to tree, and got this tab, mail me at
!   AND listens to tree@!#!@
            

comments powered by Disqus
↑ Back to top | Tree Bass for Try. Lyrics for acoustic guitar and electric guitar. Tablatures and chords are parodies/interpretations of the original songs. You may use it for private study, scholarship, research or language learning purposes only