» » »

Bass Tree Bass tabs (ver.1)

Artists:  A B C D E F G H I J K L M N O P Q R S T U V W X Y Z # 

Bass Tree Bass tabs (ver.1)

Tree
Rating:
0/5 (0 votes)

Hard to play? Try these video lessons and learn fast.
                G----4-1-------5-2-------6-3-------7-4
D---3---2-----4---3-----5---4-----6---5
A--2-----3---3-----4---4-----5---5-----6
E-1-------4-2-------5-3-------6-4-------7

G----4-1-------5-2-------6-3-------7-4
D---3---2-----4---3-----5---4-----6---5
A--2-----3---3-----4---4-----5---5-----6
E-1-------4-2-------5-3-------6-4-------7

G----4-1-------5-2-------6-3-------7-4
D---3---2-----4---3-----5---4-----6---5
A--2-----3---3-----4---4-----5---5-----6
E-1-------4-2-------5-3-------6-4-------7

G----4-1-------5-2-------6-3-------7-4
D---3---2-----4---3-----5---4-----6---5
A--2-----3---3-----4---4-----5---5-----6
E-1-------4-2-------5-3-------6-4-------7

G----4-1-------5-2-------6-3-------7-4
D---3---2-----4---3-----5---4-----6---5
A--2-----3---3-----4---4-----5---5-----6
E-1-------4-2-------5-3-------6-4-------7

G----4-1-------5-2-------6-3-------7-4
D---3---2-----4---3-----5---4-----6---5
A--2-----3---3-----4---4-----5---5-----6
E-1-------4-2-------5-3-------6-4-------7
it is the bass tree
            
Hard to play? Try these video lessons and learn fast. | Correct




comments powered by Disqus
↑ Back to top | Tablatures and chords are parodies/interpretations of the original songs. You may use it for private study, scholarship, research or language learning purposes only