» » »

Use Me To Use You Tabs (ver.1)

Artists:  A B C D E F G H I J K L M N O P Q R S T U V W X Y Z # 

Use Me To Use You Tabs (ver.1)

Trapt
Rating:
0/5 (0 votes)

Tabs too difficult? Try these video lessons and learn fast.
                -------------------------------------------------------------------------------
-------------------------------------------------------------------------------

Tuning: Standard

Introduction (Distortion) [0:00-0:16]
e|--------------------------|
B|--------------------------|
G|-5-5-5-5------------------|
D|-5-5-5-5--2-2--5-5-5-5--2-| x7
A|-3-3-3-3--2-2--5-5-5-5--2-|
E|----------0-0--3-3-3-3--0-|

Pre-Verse (Distortion) [0:17-0:33]
e|--------------------------|
B|--------------------------|
G|-5-5-5-5------------------|
D|-5-5-5-5--2-2--5-5-5-5--2-| x8
A|-3-3-3-3--2-2--5-5-5-5--2-|
E|----------0-0--3-3-3-3--0-|
PM . . . .  . .  . . . .  .

Verse (Distortion) [0:34-0:42]
e|------------------------------------|
B|------------------------------------|
G|-55-5-5-----------55-5-5------------|
D|-55-5-5--22-22----55-5-5--22-22-2-2-|
A|-33-3-3--22-22----33-3-3--22-22-2-2-|
E|---------00-00------------00-00-0-0-|

Verse (Distortion) [0:43-0:50]
e|---------------------------------|
B|---------------------------------|
G|-55-5-5-----------55-5-5---------|
D|-55-5-5--22-22----55-5-5--2-2--2-|
A|-33-3-3--22-22----33-3-3--2-2--2-|
E|---------00-00------------0-0--0-|

Chorus (Distortion) [0:51-1:08]
e|-------------------------------------------|
B|-------------------------------------------|
G|-9-9--5-5--12-12-12-12--7-7-7-7-7-7--9-9-9-|
D|-9-9--5-5--12-12-12-12--7-7-7-7-7-7--9-9-9-| x4
A|-7-7--3-3--10-10-10-10--5-5-5-5-5-5--7-7-7-|
E|-------------------------------------------|

Pre-Verse (Distortion) [1:09-1:16]
e|--------------------------|
B|--------------------------|
G|-5-5-5-5------------------|
D|-5-5-5-5--2-2--5-5-5-5--2-| x4
A|-3-3-3-3--2-2--5-5-5-5--2-|
E|----------0-0--3-3-3-3--0-|

Pre-Verse (Distortion) [1:17-1:33]
e|--------------------------|
B|--------------------------|
G|-5-5-5-5------------------|
D|-5-5-5-5--2-2--5-5-5-5--2-| x8
A|-3-3-3-3--2-2--5-5-5-5--2-|
E|----------0-0--3-3-3-3--0-|
PM . . . .  . .  . . . .  .

Verse (Distortion) [1:34-1:42]
e|------------------------------------|
B|------------------------------------|
G|-55-5-5-----------55-5-5------------|
D|-55-5-5--22-22----55-5-5--22-22-2-2-|
A|-33-3-3--22-22----33-3-3--22-22-2-2-|
E|---------00-00------------00-00-0-0-|

Verse (Distortion) [1:43-1:50]
e|---------------------------------|
B|---------------------------------|
G|-55-5-5-----------55-5-5---------|
D|-55-5-5--22-22----55-5-5--2-2--2-|
A|-33-3-3--22-22----33-3-3--2-2--2-|
E|---------00-00------------0-0--0-|

Chorus (Distortion) [1:51-2:08]
e|-------------------------------------------|
B|-------------------------------------------|
G|-9-9--5-5--12-12-12-12--7-7-7-7-7-7--9-9-9-|
D|-9-9--5-5--12-12-12-12--7-7-7-7-7-7--9-9-9-| x4
A|-7-7--3-3--10-10-10-10--5-5-5-5-5-5--7-7-7-|
E|-------------------------------------------|

Bridge (Distortion) [2:09-2:34]
e|-------------------------------------------------------------------------|
B|-------------------------------------------------------------------------|
G|-----------------------------------------------7-----7-----7-------------|
D|--------------------------10-10-10----5-5-5-5----5-5---5-5---5---1/5-4-2-| x3
A|--------------------------10-10-10---------------------------------------|
E|-8-8-8-8-8-8-8-8-8-8-8-8--8--8--8----------------------------------------|
PM . . . . . . . . . . . .              . . . .    . .   . .   .

Verse (Distortion) [2:36-2:41]
e|--------------------------|
B|--------------------------|
G|-5-5-5-5------------------|
D|-5-5-5-5--2-2--5-5-5-5--2-| x3
A|-3-3-3-3--2-2--5-5-5-5--2-|
E|----------0-0--3-3-3-3--0-|

Verse (Distortion) [2:42-2:43]
e|-----------------|
B|-----------------|
G|-5-5-5-5-5-5-5-5-|
D|-5-5-5-5-5-5-5-5-| x3
A|-3-3-3-3-3-3-3-3-|
E|-----------------|

Chorus (Distortion) [2:44-3:00]
e|-------------------------------------------|
B|-------------------------------------------|
G|-9-9--5-5--12-12-12-12--7-7-7-7-7-7--9-9-9-|
D|-9-9--5-5--12-12-12-12--7-7-7-7-7-7--9-9-9-| x4
A|-7-7--3-3--10-10-10-10--5-5-5-5-5-5--7-7-7-|
E|-------------------------------------------|

Outro (Distortion) [3:01-3:09]
e|-10----------7---|
B|----10-10-10-----|
G|-----------------|
D|-----------------| x4
A|-----------------|
E|-----------------|

Outro (Distortion) [3:10-3:18]
e|-10-7----------------------------------------|
B|------8-10-8-10-8-10-8-10-8--8-7-6-5-4-3-2-1-|
G|---------------------------------------------|
D|---------------------------------------------|
A|---------------------------------------------|
E|---------------------------------------------|

Outro (Distortion) [3:19-3:24]
e|--------------------------|
B|--------------------------|
G|-5-5-5-5------------------|
D|-5-5-5-5--2-2--5-5-5-5--2-| x3
A|-3-3-3-3--2-2--5-5-5-5--2-|
E|----------0-0--3-3-3-3--0-|

Outro (Distortion) [3:25-3:26]
e|---------------|
B|---------------|
G|-5-5-5---5-5-5-|
D|-5-5-5---5-5-5-| x3
A|-3-3-3---3-3-3-|
E|---------------|


Legend
===============================================================================
| /  Slide up
| .  Palm mute
===============================================================================
            
Tabs too difficult? Try these video lessons and learn fast.


comments powered by Disqus
↑ Back to top | Tablatures and chords are parodies/interpretations of the original songs. You may use it for private study, scholarship, research or language learning purposes only