» » »

Trapt, Trapt- Headstrong Tabs (ver.1)

Artists:  A B C D E F G H I J K L M N O P Q R S T U V W X Y Z # 

Trapt- Headstrong Tabs (ver.1)

Trapt Tabs
 Rating:
4/5 (4 votes)
Trapt- Headstrong lessons Tabs too difficult? Try these video lessons and learn fast
1
                Intro 1 		First time don?t play the last 3 chords
E---------------------------------------------------------------------
B----------7-7---------7-7-----------5-5------------5-5-----------
G---------------------------------------------------------------------
D---7-7---------7-7-----------5-5----------5-5--------------0-0-3		
A---7-7---------7-7-----------5-5----------5-5--------------0-0-3
E---5-5---------5-5-----------3-3----------3-3--------------0-0-1

Intro 2 
E----------------------------------------------------------------------------
B----------7-7---------7-7------------------5-5----------5-5-------------
G----------------------------------------------------------------------------
D---7-7---------7-7-----------7-7---5-5----------5-5--------------0-0-3				
A---7-7---------7-7-----------7-7---5-5----------5-5--------------0-0-3
E---5-5---------5-5-----------5-5---3-3----------3-3--------------0-0-1

Verse 
E----------------------------------------------7--------------------------------
B----7-------7--------8----------7--------------------5--------5---------5--
G-------------------------------------------------------------------------------
D-------------------------------------------------------------------------------
A-7----7-7-----7-7-------7-7-------7-7--------5-5-----5-5------5-5-------
E--------------------------------------------------------------------------------

E-----------------------------------------
B-------3----------3----------3--------0
G-----------------------------------------
D-----------------------------------------
A-3-3------3-3--------3-3--------3----
E-----------------------------------------

Pre- Chorus
E-----
B-----
G-----
D-----
A-0-1
E-0h3

Chorus
E------------------------------------------------------------
B--------7-7-------7-7--------------5-5---------5-5-----
G------------------------------------------------------------
D-7-7--------7-7-------7-7---5-5---------5-5------------
A-7-5--------7-7-------7-7---5-5---------5-5--------0-3
E-5-5--------5-5-------5-5---3-3---------3-3--------0h1
Solo 1
E-------14-----
B---------------
G------------12 
D-14-----------		x3  after third time of playing play a 0 on the high E string
A---------------    
E---------------
Solo 2
E-----12-----
B-------------
G----------11
D-12---------		x3  after third time of playing play a 0 on the high E string
A-------------
E--------------
Solo 3
E-------14-----			E------15----------------17---------15
B---------------			B----------------------------------------
G------------12			G----------12------------------12------
D-14-----------		x2	D-14-------------14--------------------		x1
A---------------			A----------------------------------------
E----------------			E----------------------------------------
Solo 4
E-------12------		E-------14-------------
B----------------		B-----------------------
G-------------11		G-------------11------
D-12------------	x2	D-12---------------12	x3
A----------------		A----------------------
E-----------------	E----------------------

Song Order:
Intro 1 		x2	Distortion
Intro 2		x2	Distortion
Verse 		x5	Clean
Pre- Chorus	x1	Distortion
Chorus		x4	Distortion
Verse		x5	Clean
Pre-Chorus	x1	Distortion
Chorus		x4	Distortion
Solo 1		x3	Clean
Solo 2		x3	Clean
Solo 3		x3	Clean
Solo 4		x4	Clean
Chorus		x4 	Distortion
Chorus		x2	Distortion
            
Submit corrections

comments powered by Disqus
↑ Back to top | Trapt Tabs for Trapt- Headstrong. Lyrics for acoustic guitar and electric guitar. 1 Tablatures and chords are parodies/interpretations of the original songs. You may use it for private study, scholarship, research or language learning purposes only