>
 >
These Walls 1

These Walls 1 Guitar Tabs

Trapt - These Walls 1 chords, tabs, tablatures, lyrics

Guitar lessons | Add/correct | Request | Top 50 tabs Artists:  A B C D E F G H I J K L M N O P Q R S T U V W X Y Z 0-9

These Walls 1 Guitar Tabs – Trapt

CD, Sheet music, Poster

Do you like These Walls 1? Share with your friends now
TabsTabs v2
INTRO:
E|-------------0-------------------------0-------------------------0-------------------------0---------------------------|X 2
B|---------4------4------------------4------4-----------------4------4------------------4-----4------------------------|
G|------4------------4-----------4-------------4----------4--------------4----------4------------4---------------------|
D|-------------------------------------------------------------------------------------------------------------------------|
A|--4--------------------4--2----------------------2--4----------------------4--2--------------------------------------|
E|-------------------------------------------------------------------------------------------------------------------------|

E|-------------0-------------------------0-------------------------0-------------------------0---------------------------|
B|---------4------4------------------4------4-----------------4------4------------------4-------------------------------|
G|------4------------4-----------4-------------4----------4--------------4----------4---------4-4-4-4-4-4-4-4-------|
D|------------------------------------------------------------------------------------------------4-4-4-4-4-4-4-4------|
A|--4--------------------4--2----------------------2--4----------------------4--2--------------2-2-2-2-2-2-2-2-----|
E|-------------------------------------------------------------------------------------------------------------------------|
                                                                                                                       p.m. * * * * * * * * 


CHORUS:
E|-------------------------------------------------------------------------------------------------|
B|-------------------------------------------------------------------------------------------------|
G|-------------------------------------------------------------------------------------------------|
D|---4--6----2----------4-----6------2------4--6----2----------4------6-----2----------------|
A|---4--6----2----------4-----6------2------4--6----2----------4------6-----2----------------|
E|---2--4----0----------2-----4------0------2--4----0----------2------4------0---------------|

E|-------------------------------------------------------------------------------------------------------|
B|-------------------------------------------------------------------------------------------------------|
G|-------------------------------------------------------------------------------------------------------|
D|---4--6----2----------4-----6------2------4--6----2----------4------6-----6--6--4--4--2--2-----|
A|---4--6----2----------4-----6------2------4--6----2----------4------6-----6--6--4--4--2--2-----|
E|---2--4----0----------2-----4------0------2--4----0----------2------4-----4--4--2--2--0--0-----|


BRIDGE 1:
E|-----7----------------------------------------------------7-----------------------------9-----------9-----|X3
B|------------9----7---------9-----------------------------------9----7----------7^9--------7^9---------|
G|-----------------------9---------9---8---9---6---------------------------9------------------------------|
D|----------------------------------------------------9-----------------------------------------------------|
A|-----------------------------------------------------------------------------------------------------------|
E|-----------------------------------------------------------------------------------------------------------|

E|-----7----------------------------------------------------7-----------------------------9----------------------------|
B|------------9----7---------9-----------------------------------9----7----------7^9--------------------------------|
G|-----------------------9---------9---8---9---6---------------------------9----------------4-4-4-4-4-4-4-4------|
D|----------------------------------------------------9---------------------------------------4-4-4-4-4-4-4-4------|
A|---------------------------------------------------------------------------------------------2-2-2-2-2-2-2-2------|
E|----------------------------------------------------------------------------------------------------------------------|
                                                                                                                p.m.    * * * * * * * *

(CHORUS)X2




BRIDGE 2:
(guitar 1)
E|-----------------------------------------------------------------------------------|X2
B|---------------------------------------------------------9--8----9--8------------|
G|----7--7----7--7----4--4----4--4--7--7----7--7-----9--8----9--8------------|
D|---------------------------------------------------------9--8----9--8------------|
A|---------------------------------------------------------7--6----7--6------------|
E|------------------------------------------------------------------------------------|
 
(guitar 2 comes in)
E|----------------------------------------------------------------------------------|X4
B|-----9-------------------------------------------------9--8----9--8------------|
G|-----9-------------------------------------------------9--8----9--8------------|
D|-----9-------------------------------------------------9--8----9--8------------|
A|-----7-------------------------------------------------7--6----7--6------------|
E|-----------------------------------------------------------------------------------|

(guitar 2)
E|-------16-16-16-16-16-16-16-16--14-14-14-14-17-17-17-17------------|X6
B|-----------------------------------------------------------------------------------|
G|-----------------------------------------------------------------------------------|
D|-----------------------------------------------------------------------------------|
A|-----------------------------------------------------------------------------------|
E|------------------------------------------------------------------------------------|


(INTRO)
(CHORUS)X2

OUTRO:
(guitar 1)
E|----------------------------------|
B|----------------------------------|
G|----------------------------------|
D|----2-----------------------------|
A|----2-----------------------------|
E|----0-----------------------------| play that over and over

(guitar 2)
E|-----7------------------------------------7------------------------------------7----------------------------------------|
B|--------9--7------9-------------------------9--7------9-------------------------9--7------9--------------------------|
G|---------------9------9--8--9--6------------------9------9--7--9--6------------------9------9--8--9--6------------|
D|-------------------------------------9------------------------------------9------------------------------------9--------|
A|-------------------------------------------------------------------------------------------------------------------------|
E|--------------------------------------------------------------------------------------------------------------------------|

E|-------------------------------------------------------------------------------------------------------------|
B|-----------7^9^7-------------------7^9^7--------------------7^9^7-------------------------------------|
G|--6^8^9----------9^8----6^8^9-----------9^8----6^8^9-----------9^8-------------------------------|
D|----------------------------------------------------------------------------------6--6---4--4----2--2-----|
A|----------------------------------------------------------------------------------6--6---4--4----2--2-----|
E|----------------------------------------------------------------------------------4--4----2--2----0--0----|
                                                                                                                             let ring
and thats it





Comments


Popular Trapt tabs & chords
Headstrong 2 Bass Tabs
Stories Bass Tabs
Stories 2 Bass Tabs
Echo 2 Chords
Whos Going Home With You Tonight Chords
Whos Going Home With You Tonight 1 Chords
Made Of Glass 2 Tabs
Still Frame Tabs
Whos Going Home With You Tonight 1 Tabs
Echo Ukulele


Song lyrics



↑ Back to top | Tablatures and chords are parodies/interpretations of the original songs. You may use it for private study, scholarship, research or language learning purposes only
© 2014 AZChords.com Contact us | Privacy policy | DMCA | Add/correct tabs | Request tabs | Top 50 tabs