» » »

Trapt, The Last Tear Tabs (ver.1)

Artists:  A B C D E F G H I J K L M N O P Q R S T U V W X Y Z # 

The Last Tear Tabs (ver.1)

Trapt Tabs
 Rating:
4/5 (4 votes)
The Last Tear lessons Tabs too difficult? Try these video lessons and learn fast
                -------------------------------------------------------------------------------
-------------------------------------------------------------------------------

Author's Note: If you find any mistakes or things missing please send
               these flaws to my E-mail. They will be reviewed by me
               and if valid, reposted! =)

Tuning: Standard

Introduction [0:00-0:45]
e|----------------------------------------------------------|
B|----------------------------------------------------------|
G|----------------------------------------------------------|
D|---0--0--000--0---0--0--000--0--2--2--0--0--2--2--0-0-----| x3
A|--3--3--3----3---2--2--2----2--3--3--3--3--3--3--3---3----|
E|-5--5--5----5---3--3--3----3--1--1--1--1--3--3--3-----3-0-|

Verse [0:46-1:01]
      A         A         C         C
e|----0---------0---------0---------0-----|
B|-----2---------2---------1---------1----|   (I know that it's the
G|---2--2------2--2------0--0------0--0---|    "A" and "C" chords
D|--2----2----2----2----2----2----2----2--| x2 but am unsure of the
A|-0------0--0------0--3------3--3------3-|    picking.  E-mail me
E|----------------------------------------|    your correction??)

Chorus [1:02-1:30]
e|-------------------------------|
B|-------------------------------|
G|-----------------5-5-55--------|
D|-7-7-77--333-33--5-5-55-555-55-| x4
A|-7-7-77--333-33--3-3-33-555-55-|
E|-5-5-55--111-11---------333-33-|

Pre-Verse [1:32-2:18]
e|----------------------------------------------------------|
B|----------------------------------------------------------|
G|----------------------------------------------------------|
D|---0--0--000--0---0--0--000--0--2--2--0--0--2--2--0-0-----| x3
A|--3--3--3----3---2--2--2----2--3--3--3--3--3--3--3---3----|
E|-5--5--5----5---3--3--3----3--1--1--1--1--3--3--3-----3-0-|

Verse [2:18-2:33]
      A         A         C         C
e|----0---------0---------0---------0-----|
B|-----2---------2---------1---------1----|   (I know that it's the
G|---2--2------2--2------0--0------0--0---|    "A" and "C" chords
D|--2----2----2----2----2----2----2----2--| x2 but am unsure of the
A|-0------0--0------0--3------3--3------3-|    picking.  E-mail me
E|----------------------------------------|    your correction??)

Chorus [2:34-3:02]
e|-------------------------------|
B|-------------------------------|
G|-----------------5-5-55--------|
D|-7-7-77--333-33--5-5-55-555-55-| x4
A|-7-7-77--333-33--3-3-33-555-55-|
E|-5-5-55--111-11---------333-33-|

Verse [3:05-3:20]
      A         A         C         C
e|----0---------0---------0---------0-----|
B|-----2---------2---------1---------1----|   (I know that it's the
G|---2--2------2--2------0--0------0--0---|    "A" and "C" chords
D|--2----2----2----2----2----2----2----2--| x2 but am unsure of the
A|-0------0--0------0--3------3--3------3-|    picking.  E-mail me
E|----------------------------------------|    your correction??)

Chorus/Outro [3:20-4:04]
e|-------------------------------|
B|-------------------------------|
G|-----------------5-5-55--------|
D|-7-7-77--333-33--5-5-55-555-55-| x6
A|-7-7-77--333-33--3-3-33-555-55-|
E|-5-5-55--111-11---------333-33-|

Outro [4:06-4:17]
e|---|
B|---|
G|---|
D|-7-|
A|-7-|
E|-5-|
            
Submit corrections

comments powered by Disqus
↑ Back to top | Trapt Tabs for The Last Tear. Lyrics for acoustic guitar and electric guitar. Tablatures and chords are parodies/interpretations of the original songs. You may use it for private study, scholarship, research or language learning purposes only