» » »

Trapt, The Game Bass tabs (ver.2)

Artists:  A B C D E F G H I J K L M N O P Q R S T U V W X Y Z # 

The Game Bass tabs (ver.2)

Trapt Tabs
 Rating:
4/5 (4 votes)
The Game lessons Tabs too difficult? Try these video lessons and learn fast
                ********************
* Trapt - The Game *
********************
Standard tuning.

Intro
G|----------------------------------|---------------|
D|----4-4-----5p4p2---4-4----4h7p0--|-----------9~--|
A|--22----0h22------00----00--------|-----5~-00-----|
E|----------------------------------|--33-----------|

Transition to Chorus
G|-----------------------|
D|-----------------//7~--|
A|-----------------------|
E|--00---00---33---------|

Chorus
G|-----------------------------|
D|-----------------------------|
A|--22222222222----------------|
E|--------------000000-333333--|

Bridge
G|------4p2-22-2/4---------------------|
D|----4-----------55-55/7-44-44h5p4p2--|
A|--22-2-------------------------------|
E|-------------------------------------|
            
Submit corrections

comments powered by Disqus
↑ Back to top | Trapt Bass for The Game. Lyrics for acoustic guitar and electric guitar. Tablatures and chords are parodies/interpretations of the original songs. You may use it for private study, scholarship, research or language learning purposes only