» » »

Trapt, Promise Tabs (ver.1)

Artists:  A B C D E F G H I J K L M N O P Q R S T U V W X Y Z # 

Promise Tabs (ver.1)

Trapt Tabs
 Rating:
4/5 (4 votes)
Promise lessons Tabs too difficult? Try these video lessons and learn fast
                Band- Trapt
Song- Promise

Standard Tuning

Intro
E|--0----0----3----0----0---------------------------------------------|
B|--0----5----0----0----0---------------------------------------------|
G|--7----6----2----2----2---------------------------------------------|
D|--5----6----2----4----4---------------------------------------------|
A|--7----4----0----4----2---------------------------------------------|
E|--0-----------------------------------------------------------------|

Guitar Fills 
E|---------|------|----7---7---7---7---------|------------------------|
B|---------|--8~--|--8-8-8-8-7-7-7-7---------|------------------------|
G|----6----|--7~--|--7---7---7---7-----9~----|--7~--6~--7~--9~--------|
D|---5-5---|------|--------------------9~----|--X---X---X---X---------|
A|--7---7--|------|--------------------------|--5~--4~--5~--7~--------|
E|-0-------|------|--------------------------|------------------------|

Verse
E|----0-------0----------|
B|----0-------5----------|
G|----7-------6----------|
D|----5-------6----------|
A|----7-------4----------|
E|----0------------------|

Pre-Chorus
E|---------------------------------------------|
B|---------------------------------------------|
G|----5---5---5---5---7---4--4--4--4---2-------|
D|---5---5---5---5---5---2--2--2--2---2---X-X--|
A|--3---3---3---3---5---2--2--2--2---5----X-X--|
E|----------------------0--0--0--0--------X-X--|
  Very Tight P.M.

Chorus
E|-------------------------------------------------------------------|
B|-------------------------------------------------------------------|
G|-5-5-5-5-5-5-5/7/9-9-9-9-9-9-9/7-----5-5-5-5-5-5-5-----------------|
D|-5-5-5-5-5-5-5/7/9-9-9-9-9-9-9/7--x2-5-5-5-5-5-5-5-5-5-X-3-3-X-3-3-|
A|-3-3-3-3-3-3-3/5/7-7-7-7-7-7-7/5-----3-3-3-3-3-3-3-5-5-X-3-3-X-3-3-|
E|-3-3-3-3-3-3-3/5/7-7-7-7-7-7-7/5-------------------3-3-X-1-1-X-0h1-|

E|--------------------------------------|
B|--------------------------------------|
G|-5-5-5-5-5-5-5------------------------|
D|-5-5-5-5-5-5-5-5-5-X-3-3-3-3--2-2-5---|
A|-3-3-3-3-3-3-3-5-5-X-3-3-3-3--2-0-3---|
E|---------------3-3-X-1-1-1-1--0-------|

Bridge
E|---2----------------------------------|
B|--------0-------0-------2-------------|
G|-4---4-----------0-----------4--------|
D|----------------------0---0-----------|
A|-------------3------------------------|
E|--------------------------------------|
            
Submit corrections

comments powered by Disqus
↑ Back to top | Trapt Tabs for Promise. Lyrics for acoustic guitar and electric guitar. Tablatures and chords are parodies/interpretations of the original songs. You may use it for private study, scholarship, research or language learning purposes only