>
 >
Product Of My Own Design

Product Of My Own Design Guitar Tabs

Trapt - Product Of My Own Design chords, tabs, tablatures, lyrics

Guitar lessons | Add/correct | Request | Top 50 tabs Artists:  A B C D E F G H I J K L M N O P Q R S T U V W X Y Z 0-9

Product Of My Own Design Guitar Tabs – Trapt

CD, Sheet music, Poster

Do you like Product Of My Own Design? Share with your friends now
Tabs
-------------------------------------------------------------------------------
-------------------------------------------------------------------------------

Tuning: Standard

Introduction (distortion) [0:07-0:14]
e|------------------------------------|
B|------------------------------------|
G|------------------------------------|
D|-11--11--11-9-9-11--11--11-11-9-9-9-| x2
A|-11--11--11-9-9-11--11--11-11-9-9-9-|
E|-9---9---9--7-7-9---9---9--9--7-7-7-|

Verse (Clean) [0:15-0:36]
e|-----------------------------------------------------------------|
B|-----------------------------------------------------------------|
G|-----------------------------------------------------------------|
D|-------6---------------------------------------------------------| x3
A|---------------9-------7-------6---------------------------------|
E|-9-9-9---9-9-9---9-9-9---9-9-9---9-9-9-9-9-9-9-7-9-9-9-9-9-9-9-9-|
PM .....   .....   .....   .....   .............   ...............

Pre-Chorus (Clean) [0:37-0:44]
e|----------------------------------------------------------------|
B|-----7-----7-----7-----7-----7-----7-----7----7-----------------|
G|---8-----8-----8-----8-----8-----8-----8----8-------------------|
D|-9-----9-----9-----9-----9-----9-----9----9------11-11-11-11-11-|
A|-------------------------------------------------11-11-11-11-11-|
E|-------------------------------------------------9--9--9--9--9--|

Chorus (Distortion) [0:45-0:57]
e|------------------------------------|
B|------------------------------------|
G|-----------9-9-9--13-13-13-13-13-13-|
D|-11-11-11--9-9-9--13-13-13-13-13-13-| x4
A|-11-11-11--7-7-7--11-11-11-11-11-11-|
E|-9--9--9----------------------------|

Bridge (Distortion) [0:58-1:01]
e|------------------------------------|
B|------------------------------------|
G|------------------------------------|
D|-11--11--11-9-9-11--11--11-11-9-9-9-|
A|-11--11--11-9-9-11--11--11-11-9-9-9-|
E|-9---9---9--7-7-9---9---9--9--7-7-7-|

Verse (Clean) [1:02-1:24]
e|-----------------------------------------------------------------|
B|-----------------------------------------------------------------|
G|-----------------------------------------------------------------|
D|-------6---------------------------------------------------------| x3
A|---------------9-------7-------6---------------------------------|
E|-9-9-9---9-9-9---9-9-9---9-9-9---9-9-9-9-9-9-9-7-9-9-9-9-9-9-9-9-|
PM .....   .....   .....   .....   .............   ...............

Pre-Chorus (Clean) [1:25-1:32]
e|----------------------------------------------------------------|
B|-----7-----7-----7-----7-----7-----7-----7----7-----------------|
G|---8-----8-----8-----8-----8-----8-----8----8-------------------|
D|-9-----9-----9-----9-----9-----9-----9----9------11-11-11-11-11-|
A|-------------------------------------------------11-11-11-11-11-|
E|-------------------------------------------------9--9--9--9--9--|

Chorus (Distortion) [1:33-1:42]
e|------------------------------------|
B|------------------------------------|
G|-----------9-9-9--13-13-13-13-13-13-|
D|-11-11-11--9-9-9--13-13-13-13-13-13-| x3
A|-11-11-11--7-7-7--11-11-11-11-11-11-|
E|-9--9--9----------------------------|

Chorus (Distortion) [1:43-1:45]
e|-----------------------|
B|-----------------------|
G|-----------9-9-9--13-x-|
D|-11-11-11--9-9-9--13-x-|
A|-11-11-11--7-7-7--11-x-|
E|-9--9--9---------------|

Pre Solo (Clean) [1:46-2:00]
e|----------------------------------------------|
B|----------------------------5-----------5-----|
G|-6---9-6---9-6---9-6------6---6-------6---6---|
D|-6---9-6---9-6---9-6----6-------6---6-------6-|
A|-4---7-4---7-4---7-4--4-----------4-----------|
E|----------------------------------------------|

Solo (Clean) [2:01-2:07]
e|-------------------------------|
B|-5-4----5-4----5-4-----5-4-----|
G|-----6------6------6-------6-4-|
D|-------------------------------| x2
A|-------------------------------|
E|-------------------------------|

Solo (Clean) [2:08-2:12]
e|----9--7--4-|
B|-2----------|
G|------------|
D|------------| x3
A|------------|
E|------------|

Solo (Clean) [2:13-2:14]
e|---------------------------|
B|-4-4-4-4--5-5-5-5--7-7-7-7-|
G|---------------------------|
D|---------------------------|
A|---------------------------|
E|---------------------------|

Chorus (Distortion) [2:30-2:40]
e|------------------------------------|
B|------------------------------------|
G|-----------9-9-9--13-13-13-13-13-13-|
D|-11-11-11--9-9-9--13-13-13-13-13-13-| x3
A|-11-11-11--7-7-7--11-11-11-11-11-11-|
E|-9--9--9----------------------------|

Chorus (Distortion) [2:41-2:44]
e|-----------------------|
B|-----------------------|
G|-----------9-9-9--13-x-|
D|-11-11-11--9-9-9--13-x-|
A|-11-11-11--7-7-7--11-x-|
E|-9--9--9---------------|

Outro (Distortion) [2:45-2:58]
e|------------------------------------|
B|------------------------------------|
G|--------------------9-9-9--13-13-13-|
D|-11-11-11-11-11-11--9-9-9--13-13-13-| x4
A|-11-11-11-11-11-11--7-7-7--11-11-11-|
E|-9--9--9--9--9--9-------------------|

Outro (Distortion) [2:59-3:12]-------------
                                           |
Guitar 1                             ------|
e|------------------------------------|    |
B|------------------------------------|    |
G|------------------------------------|    |
D|-11--11--11-9-9-11--11--11-11-9-9-9-| x4 |
A|-11--11--11-9-9-11--11--11-11-9-9-9-|    |
E|-9---9---9--7-7-9---9---9--9--7-7-7-|    |
                                           |
Guitar 2                                   |
e|------------------------------------|    |
B|------------------------------------|    |
G|------------------------------------|    |
D|------------------------------------| x2 |
A|------------------------------------|    |
E|-9-x22--11-x8--7-x22--9-x8----------|    |
                                     ------|

Outro (Distortion) [3:13-3:32]
e|-------------------|
B|-------------------|
G|--------------ring-|
D|-11--------it------|
A|-11----let---------|
E|-9-----------------|


Legend
===============================================================================
| x  Mute note
| .  Palm mute
===============================================================================





Comments


Popular Trapt tabs & chords
Cover Up Bass Tabs
Head Strong 1 Bass Tabs
Stand Up Bass Tabs
Stories 2 Bass Tabs
Wasteland Bass Tabs
Bring It Tabs
Headstrong 1 Tabs
Headstrong 4 Tabs
Stand Up 3 Tabs
Stories Tabs


Song lyrics



↑ Back to top | Tablatures and chords are parodies/interpretations of the original songs. You may use it for private study, scholarship, research or language learning purposes only
© 2014 AZChords.com Contact us | Privacy policy | DMCA | Add/correct tabs | Request tabs | Top 50 tabs