» » »

Only One In Color Bass tabs (ver.1)

Artists:  A B C D E F G H I J K L M N O P Q R S T U V W X Y Z # 

Only One In Color Bass tabs (ver.1)

Trapt
Rating:
4/5 (1 vote)

Hard to play? Try these video lessons and learn fast.
                --------------------------------------------------------------------
--------------------------------------------------------------------


Tuning: Standard (EADG)

Rest 3 bars

Intro

G|----------------|
D|----------------|
A|----------------|
E|------------5420|
B|----------------|

Verse

G|----------------|----------------|----------------|----------------|
D|----------------|--------------2-|----------------|----------------|
A|xx5-5-55---x5---|---------x2h4---|-x5-5-55---x5---|----------------|
E|----------------|xx5-5-55--------|----------------|xx5-5-55---x5420|
B|----------------|----------------|----------------|----------------|

G|----------------|----------------|----------------|----------------|
D|----------------|--------------2-|----------------|----------------|
A|xx5-5-55---x5---|---------x2h4---|-x5-5-55---x5---|----------575~--|
E|----------------|xx5-5-55--------|----------------|xx5-5--557------|
B|----------------|----------------|----------------|----------------|

Pre-Chorus

G|----------------|----------------|----------------|------------9---|
D|----------------|----------------|----------------|---------7------|
A|5~--------------|7~--------------|----------------|----------------|
E|----------------|----------------|2~--------------|5~------5--5----|
B|----------------|----------------|----------------|----------------|

G|----------------|----------------|----------------|----------------|
D|----------------|----------------|----------------|----------------|
A|5~--------------|7~--------------|----------------|----------------|
E|----------------|----------------|2~--------------|5~--------------|
B|----------------|----------------|----------------|----------------|

Chorus x 2

G|----------------|----------------|----------------|----------------|
D|----------------|----------------|----------------|----------------|
A|----------------|----------------|----------------|----------------|
E|----------------|2~-----2~---x5--|----------------|2~-----2~---5---|
B|3~-----5~-------|----------------|3~-----5~-------|----------------|

Post-Chorus

G|----------------|----------------|
D|----------------|----------------|
A|----------------|----------------|
E|----------------|2~--------------|
B|3~------5~------|----------------|

Verse

Pre-Chorus

Chorus x 2

Post-Chorus x 2

Bridge

G|----------------|----------------|----------------|----------------|
D|----------------|----------------|----------------|----------------|
A|----------------|----------------|----------------|------------0/--|
E|----------------|----------------|----------------|----------------|
B|----------------|----------------|----------------|----------------|

G|----------------|----------------|----------------|----------------|
D|-------2--2-2---|4-4-4--4--4-4/7-|-------2--2-2---|4-4-4--4--4-4---|
A|5-5-5-----------|----------------|5-5-5-----------|----------------|
E|----------------|----------------|----------------|----------------|
B|----------------|----------------|----------------|----------------|

Chorus x 4

Post-Chorus x 2


| /  slide up
| \  slide down
| h  hammer-on
| p  pull-off
| ~  hold note
|( ) ghost note
| +  harmonic
| x  mute note
================================================================================
            
Hard to play? Try these video lessons and learn fast. | Correct




comments powered by Disqus
↑ Back to top | Tablatures and chords are parodies/interpretations of the original songs. You may use it for private study, scholarship, research or language learning purposes only