>
 >
Headstrong 5

Headstrong 5 Guitar Tabs

Trapt - Headstrong 5 chords, tabs, tablatures, lyrics

Guitar lessons | Add/correct | Request | Top 50 tabs Artists:  A B C D E F G H I J K L M N O P Q R S T U V W X Y Z 0-9

Headstrong 5 Guitar Tabs – Trapt

CD, Sheet music, Poster

Do you like Headstrong 5? Share with your friends now
Bass TabsBass Tabs v2Bass Tabs v3ChordsTabsTabs v2Tabs v3Tabs v4Tabs v5Tabs v6Tabs v7Tabs v8Ukulele
Intro
----------------------------------------------------------------------------
-----7-7-----7-7------------5-5-----5-5-------------------------------------
----------------------------------------------------------------------------
-7-7-----7-7-----7-7----5-5-----5-5-----5\4~--------------------------------
-7-7-----7-7-----7-7----5-5-----5-5-----5\4~--------------------------------
-5-5-----5-5-----5-5----3-3-----3-3-----3\2~--------------------------------

Verse 6x
---------------77-----------------------------------------------------------
-77-77-7h8-8p7----55-55-5p3-33-3p0------------------------------------------
----------------------------------------------------------------------------
----------------------------------------------------------------------------
----------------------------------------------------------------------------
----------------------------------------------------------------------------
    
Chorus 4x "Back off ill take you on"
----------------------------------------------------------------------------
-----7-7-----7-7------------5-5-----5-5-------------------------------------
----------------------------------------------------------------------------
-7-7-----7-7-----7-7----5-5-----5-5-----5\4---------------------------------
-7-7-----7-7-----7-7----5-5-----5-5-----5\4---------------------------------
-5-5-----5-5-----5-5----3-3-----3-3-----3\2---------------------------------

After Chorus "And this is not where you belong"
----------------------------------------------------------------------------
----------------------------------------------------------------------------
--13-13-13-11-9-----13-12-15-15-11-----13-13-13-13-16-----13-12-15-15-11----
--x--x--x--x--x-----x--x--x--x--x------x--x--x--x--x------x--x--x--x--x--5-4
--11-13-13-9--7-----11-10-13-13-9------11-11-11-11-16-----11-10-13-13-9--5-4
-------------------------------------------------------------------------3-2

Interlude
----------------------------------19----------------------------------------
-17-19--17-20--17-19--17-20--17--------15-17--15-19--15-17--15-19--15--17---
----------------------------------------------------------------------------
----------------------------------------------------------------------------
----------------------------------------------------------------------------
----------------------------------------------------------------------------

Chorus 4x "Back off ill take you on"
----------------------------------------------------------------------------
-----7-7-----7-7------------5-5-----5-5-------------------------------------
----------------------------------------------------------------------------
-7-7-----7-7-----7-7----5-5-----5-5-----5\4~--------------------------------
-7-7-----7-7-----7-7----5-5-----5-5-----5\4~--------------------------------
-5-5-----5-5-----5-5----3-3-----3-3-----3\2~--------------------------------

Circling your
Circling your
Circling your head contemplating everything you ever said
Now I see the truth I got a doubt
A different motive in your eyes and now I'm out
See you later
I see your fantasy you want to make it a reality paved in gold
See inside, inside of our heads, yeah
Well now that's over 

I see your motives inside 
decisions to hide

*chorus*
Back off I'll take you on
Headstrong to take on anyone
I know that you are wrong
Headstrong we're Headstrong
Back off I'll take you on
Headstrong to take on anyone
I know that you are wrong
and This is not where you belong

I can't give everything away
I won't give everything away 

Conclusions manifest your first impression's got to be your very best
I see your full of shit and that's alright
That's how you play I guess you get through every night
Well now that's over
I see your fantasy you want to make it a reality paved in gold
See inside, inside of our heads, yeah
Well now that's over 

I see your motives inside
Decisions to hide

*Chorus

I can't give everything away, This is not were you belong
I won't give everything away

I know I know all about (x3)
I know I know all about 

your motives inside and your 
decision to hide

*Chorus 

I can't give everything away
I won't give everything away, this is not were you belong





Comments


Popular Trapt tabs & chords
Contagious Bass Tabs
Cover Up Bass Tabs
Headstrong 1 Bass Tabs
Stories 2 Bass Tabs
Waiting Bass Tabs
When All Is Said And Done Bass Tabs
Gone Forever Tabs
Lost Realist 1 Tabs
Skin Deep Tabs
Echo Ukulele


Song lyrics



↑ Back to top | Tablatures and chords are parodies/interpretations of the original songs. You may use it for private study, scholarship, research or language learning purposes only
© 2014 AZChords.com Contact us | Privacy policy | DMCA | Add/correct tabs | Request tabs | Top 50 tabs