» » »

Gone Forever Tabs (ver.1)

Artists:  A B C D E F G H I J K L M N O P Q R S T U V W X Y Z # 

Gone Forever Tabs (ver.1)

Trapt
Rating:
5/5 (1 vote)

Tabs too difficult? Try these video lessons and learn fast.
                
Band:Trapt

standerd tuning



clean
-------------------------------|
-------------------------------|
-4--4---5--5-5-----------------|
-2--2---2--2-2-----------------|
-0--0---0--0-0-----------------|
-------------------------------|
                               |
                               |       2x
-------------------------------|
-------------------------------|
--0---0-0---2-2---2-2----------|
--3---3-3---3-3---3-3----------|
--3---3-3---3-3---3-3----------|
--0----------------------------|

-------------------------3-3-3-3-3--|
--0-0-0--00-----1--1-1---3-3-3-3-3--|
--2-2-2--22-----0--0-0---0-0-0-0-0--|  3x
--2-2-2--22-----2--2-2---0-0-0-0-0--|
--0-0-0--00-----3--3-3---0-0-0-0-0--|
-------------------------3-3-3-3-3--|


-------3-333-----3--------------|
-0--1--3-333-----3--------------|
-2--0--0-000-----0--------------|
-2--2--0-000-----0--------------|  3x
-0--3--0-000-----0--------------|
-------3-333-----3--------------|

-------------------------------------|
--1-0-------1-0-------3-1------------|
-------0-2------0-2--------0-1-0-1---|
-------------------------------------|
-------------------------------------|
-------------------------------------|

------------------------------------------|
-3-3-3-3-1-1-1-1-0-0-0-0-1-1-1-1-3-3-3-3--|
--2-2-2-2-2-2-2-2-2-2-2-2-0-0-0-0-0-0-0-0-|
------------------------------------------|   2x
------------------------------------------|
------------------------------------------|

silent for 2 sec.


-------------------------------|
-------------------------------|
-----4----5-----0-----2--------|
---2----2-----3-----3----------|
-0-----0----3-----3------------|
-------------------------------|

----------------3-------3-------|
-0----0-1----1--3------3---0----|
-2---2--0---0---0-----0----2----|
-2--2---2--2----0----0-----2----|
-0-0----3-3-----0---0------0----|
----------------3---------------|


     distortion gtr. 1
----------------------------------------------------------|
----------------------------------------------------------|
-5-5-5-5-7-7-7-9-9-9-9-7-7-7-5-5-5-5-7-7-7-9-9-9-9-7-7-7--|
----------------------------------------------------------|
----------------------------------------------------------|
----------------------------------------------------------|

----------|
----------|
-9-9-7----|
----------|
----------|
----------|


-------------------------------|
-------------------------------|
-5-5-5-5-7-7-7-9-9-9-9-7-7-7---|
-3-3-3-3-5-5-5-7-7-7-7-5-5-5---| 2x
-------------------------------|
-------------------------------|

-------------------------------|
-------------------------------|
-5-5-5-5-7-7-7-9-9-9-9-7-7-7---|
-3-3-3-3-5-5-5-7-7-7-7-5-5-5---|  2x
-3-3-3-3-5-5-5-7-7-7-7-5-5-5---|
-------------------------------|

-------------------------------|
-------------------------------|
5-5-5-5-7-7-7-9-9-9-9-7-7-7----|
5-5-5-5-7-7-7-9-9-9-9-7-7-7----| 2x
3-3-3-3-5-5-5-7-7-7-7-5-5-5----|
3-3-3-3-5-5-5-7-7-7-7-5-5-5----|

let the note ring the hole measer
-------------------------------|
-------------------------------|
-------------------------------|
-2-----------------------------|
-2-----------------------------|
-0-----------------------------|

---------------------------------------|
---------------------------------------|
---------------------------------------|
-5-xxxxx-5-xxxx-5-xxxx-5--4---2--------|  2x
-5-xxxxx-5-xxxx-5-xxxx-5--4---2--------|
-3-xxxxx-3-xxxx-3-xxxx-3--2---0--------|

----------|
----------|
-------5--|
-----5----|
---3------|
-3--------|

--------------------------------------------------------|
--------------------------------------------------------|
-15-15-15-15-15-15-14-14-14-14--17-17-17-17-12-12-12-12-|
--------------------------------------------------------|
--------------------------------------------------------|
--------------------------------------------------------|

                                             3x for both
-------------------------------|
-------------------------------|
-------------------------------|
-15-15-15-14-14-14-17-15-14-15-|
-------------------------------|
-------------------------------|

-------------------------------|
-------------------------------|
-------------------------------|
-------------2---12-12-12------|
-7-7---4-4---2---12-12-12------|
-5-5---2-2---0---10-10-10------|

-------------------------------|
-------------------------------|
-------------------------------|
------------2------------------|
-7-7---4-4--2------------------|
-5-5---2-2--0------------------|


all done oh yeah just to tell you guys at home this is an unrealesed
song of trapt so i met chris brown at this show he was all coverd
coverd in clothing and i noticed him he gave me this site that has there
un realesed songs and other stuff but i cant tell you and just keep
this on the down low shall we okand if you have any questions e-mail me
            
Tabs too difficult? Try these video lessons and learn fast.




comments powered by Disqus
↑ Back to top | Tablatures and chords are parodies/interpretations of the original songs. You may use it for private study, scholarship, research or language learning purposes only