» » »

Trapt, Forget About The Rain Bass tabs (ver.1)

Artists:  A B C D E F G H I J K L M N O P Q R S T U V W X Y Z # 

Forget About The Rain Bass tabs (ver.1)

Trapt Tabs
 Rating:
4.2/5 (5 votes)
Forget About The Rain lessons Tabs too difficult? Try these video lessons and learn fast
                --------------------------------------------------------------------------------
--------------------------------------------------------------------------------


Tuning: Standard 5 string (BEADG)
Scale:  B Minor

I got a pre-release copy of this song. Absolutely love the bassline, and just
had to tab it for all you Trapt fans out there. Enjoy! =)

Intro

G|----------------|
D|----------------|
A|------------75--|
E|-----------5--7-|
B|----------------|

Verse

G|----------------|----------------|----------------|----------------|
D|----------------|----------------|----------------|----------------|
A|--------------5-|----------5-5---|--------------5-|----------5-5---|
E|5-7-7-------55--|5~-------3-3----|5-7-7-------55--|5~-------3-3----|
B|-----------5----|--------3------5|-----------5----|--------3------5|
      .                      .          .                      .
G|----------------|----------------|----------------|----------------|
D|----------------|----------------|----------------|----------------|
A|--------------5-|----------5-5---|--------------5-|7~------3~------|
E|5-7-7-------55--|5~-------3-3----|5-7-7-------55--|----------------|
B|-----------5----|--------3------5|-----------5----|----------------|
      .                      .          .
Pre-Chorus

G|----------------|----------------|----------------|----------------|
D|----------------|----------------|----------------|----------------|
A|----------------|----------------|----------------|----------------|
E|3---3---5---5---|7---7---7---7---|3---3---5---5---|----------------|
B|----------------|----------------|----------------|5---5---5---5---|

G|----------------|----------------|----------------|
D|----------------|----------------|----------------|
A|----------------|----------------|5---4---2-------|
E|3---3---5---5---|7---7---7---7---|------------2---|
B|----------------|----------------|----------------|

Chorus

G|----------------|----------------|----------------|----------------|
D|----------------|----------------|----------------|----------------|
A|----------------|----------------|----------------|----------------|
E|3-----3-5-----5-|7-----7-----7---|3-----3---------|----------------|
B|----------------|----------------|--------3-----3-|5----5-------5--|

G|----------------|----------------|----------------|----------------|
D|----------------|----------------|----------------|----------------|
A|----------------|----------------|----------------|------------75--|
E|3-----3-5-----5-|7-----7-----7---|3-----3---------|-----------5--7-|
B|----------------|----------------|--------3-----3-|5----5----------|

Verse

Pre-Chorus

Chorus

G|----------------|----------------|----------------|----------------|
D|----------------|----------------|----------------|----------------|
A|----------------|----------------|----------------|----------------|
E|3-----3-5-----5-|7-----7-----7---|3-----3---------|----------------|
B|----------------|----------------|--------3-----3-|5----5-------5--|

G|----------------|----------------|----------------|----------------|
D|----------------|----------------|----------------|----------------|
A|----------------|----------------|----------------|----------------|
E|3-----3-5-----5-|7-----7-----7---|3-----3---------|----------------|
B|----------------|----------------|--------3-----3-|5----5------12\-|

Bridge

G|----------------|----------------|----------------|----------------|
D|----------------|----------------|----------------|----------------|
A|----------------|----------------|----------------|----------------|
E|------7-------7-|--------2--2-20-|------7-------7-|-------2-2-2-20-|
B|0--057-------7--|5------2--------|0--057-------7--|5-----2---------|
  .     .                     .     .     .                 . . .
G|----------------|----------------|----------------|----------------|
D|----------------|----------------|----------------|----------------|
A|----------------|----------------|----------------|----------------|
E|------7-------7-|--------2--2-20-|------7-------7-|-------2-2-2-20-|
B|0--057-------7--|5------2--------|0--057-------7--|5-----2---------|
  .     .                     .     .     .                 . . .
G|----------------|----------------|----------------|----------------|
D|----------------|----------------|----------------|----------------|
A|----------------|----------------|----------------|----------------|
E|------7-------7-|--------2--2-20-|------7-------7-|5---4---2-------|
B|0--057-------7--|5------2--------|0--057-------7--|------------2---|
  .     .                     .     .     .
Chorus

G|----------------|----------------|----------------|----------------|
D|----------------|----------------|----------------|----------------|
A|----------------|----------------|----------------|----------------|
E|3-----3-5-----5-|7-----7-----7---|3-----3---------|----------------|
B|----------------|----------------|--------3-----3-|5----5-------5--|

G|----------------|----------------|----------------|----------------|
D|----------------|----------------|----------------|----------------|
A|----------------|----------------|----------------|-----7------7---|
E|3-----3-5-----5-|7-----7-----7---|3-----3---------|----------------|
B|----------------|----------------|--------3-----3-|5------55--5--5-|

G|----------------|----------------|----------------|----------------|
D|----------------|----------------|----------------|----------------|
A|----------------|----------------|----------------|----------------|
E|3---3-3-5---5-5-|7---7-7-7---7-7-|3---3-3---------|----------------|
B|----------------|----------------|--------3---3-3-|5---5---5-5-5-5-|

G|----------------|----------------|----------------|----------------|
D|----------------|----------------|----------------|----------------|
A|----------------|----------------|----------------|----------------|
E|3---3-3-5---5-5-|7---7-7-7---7-7-|3---3-3---------|----------------|
B|----------------|----------------|--------3---3-3-|-55--55--55--55-|

Outro

G|----------------|----------------|----------------|----------------|
D|----------------|----------------|----------------|----------------|
A|----------------|----------------|----------------|----------------|
E|-77--77--77--77-|-77--77--77--77-|-77--77--77--77-|-77--77--77--77-|
B|0---------------|0-------0---0---|0---------------|0-------0-------|


| /  slide up
| \  slide down
| h  hammer-on
| p  pull-off
| ~  hold note
|( ) ghost note
| +  harmonic
| x  mute note
================================================================================
            
Submit corrections

comments powered by Disqus
↑ Back to top | Trapt Bass for Forget About The Rain. Lyrics for acoustic guitar and electric guitar. Tablatures and chords are parodies/interpretations of the original songs. You may use it for private study, scholarship, research or language learning purposes only