>
 >
Everything To Lose

Everything To Lose Guitar Tabs

Trapt - Everything To Lose chords, tabs, tablatures, lyrics

Guitar lessons | Add/correct | Request | Top 50 tabs Artists:  A B C D E F G H I J K L M N O P Q R S T U V W X Y Z 0-9

Everything To Lose Guitar Tabs – Trapt

CD, Sheet music, Poster

Do you like Everything To Lose? Share with your friends now
Tabs
-------------------------------------------------------------------------------
-------------------------------------------------------------------------------

Author's Note: If you find any mistakes or things missing please send
               these flaws to my E-mail. They will be reviewed by me
               and if valid, reposted! =)

Tuning: Db Ab Db Gb Bb eb (Half-step, Drop D)

Introduction [0:00-0:50]
eb|-----------------------|
Bb|-----------------------|     (This is more or
Gb|-7-x-7-x-7-x-7-x-7-7p5-|      less what is
Db|-----------------------| x16  being played.
Ab|-----------------------|      Not 100% right.)
Db|-----------------------|

Verse [0:52-1:01]
eb|--------------------------------|
Bb|--------------------------------|
Gb|--------------------------------| (This palm mute is
Db|-000-----333-----555-----222----|  played as if a
Ab|-000-x8--333-x8--555-x4--222-x4-|  horse's hoof click.)
Db|-000-----333-----555-----222----|
PM  ...     ...     ...     ...
    ^V^     ^V^     ^V^     ^V^

Verse [1:02-1:07]
eb|-------------------------------|
Bb|-------------------------------|
Gb|-------------------------------|
Db|-----------3-------5---------3-| x2
Ab|-5-5-5-5-5---5-5-5---5-5-5-5---|
Db|-------------------------------|
    
Chorus [1:08-1:34]
eb|---------------------------|
Bb|---------------------------|
Gb|---------------------------|
Db|-0----3----5----8----10----| x2
Ab|-0-x8-3-x8-5-x8-8-x8-10-x8-|
Db|-0----3----5----8----10----|

Chorus [1:11-1:34]
eb|---------------------------|
Bb|---------------------------|
Gb|-14-12-10----14-12-10-/-12-|     (You gotta really
Db|---------------------------| x2   listen for this.
Ab|-12-10-8-----12-10-8--/-10-|      It's there =).)
Db|---------------------------|

Pre-Verse [1:35-2:10]
eb|-----------------------|
Bb|-----------------------|
Gb|-7-x-7-x-7-x-7-x-7-7p5-|
Db|-----------------------| x12
Ab|-----------------------|
Db|-----------------------|

Verse [2:11-2:20]
eb|--------------------------------|
Bb|--------------------------------|
Gb|--------------------------------| (This palm mute is
Db|-000-----333-----555-----222----|  played as if a
Ab|-000-x8--333-x8--555-x4--222-x4-|  horse's hoof click.)
Db|-000-----333-----555-----222----|
PM  ...     ...     ...     ...
    ^V^     ^V^     ^V^     ^V^

Verse [2:21-2:26]
eb|-------------------------------|
Bb|-------------------------------|
Gb|-------------------------------|
Db|-----------3-------5---------3-| x2
Ab|-5-5-5-5-5---5-5-5---5-5-5-5---|
Db|-------------------------------|

Chorus [2:27-2:52]
eb|---------------------------|
Bb|---------------------------|
Gb|---------------------------|
Db|-0----3----5----8----10----| x2
Ab|-0-x8-3-x8-5-x8-8-x8-10-x8-|
Db|-0----3----5----8----10----|

Chorus [2:38-2:52]
eb|---------------------------|
Bb|---------------------------|
Gb|-14-12-10----14-12-10-/-12-|     (You gotta really
Db|---------------------------| x2   listen for this.
Ab|-12-10-8-----12-10-8--/-10-|      It's there =).)
Db|---------------------------|

Bridge [2:53-2:59]
eb|--------13-----8-------10-|
Bb|--------------------------|
Gb|--------------------------|
Db|-00000-----000---00000----| x2
Ab|-00000-----000---00000----|
Db|-00000-----000---00000----|
PM  .....     ...   .....
    ^V^V^     ^V^   ^V^V^

Rest [3:06-3:31]
eb|-------------------------------------------|
Bb|-8~8~10~10~11~11~13~13~15--15~-------------|
Gb|---------------------------------7/12--7/12|
Db|-------------------------------------------| x4
Ab|-------------------------------------------|
Db|-------------------------------------------|

Rest [3:32-3:50]
eb|----------------|
Bb|----------------|
Gb|-7-7-9-7-10-7-9-|
Db|----------------| x12
Ab|----------------|
Db|----------------|

Chorus [3:51-4:14]
eb|---------------------------|
Bb|---------------------------|
Gb|---------------------------|
Db|-0----3----5----8----10----| x3
Ab|-0-x8-3-x8-5-x8-8-x8-10-x8-|
Db|-0----3----5----8----10----|

Chorus [3:53-4:14]
eb|---------------------------|
Bb|---------------------------|
Gb|-14-12-10----14-12-10-/-12-|     (You gotta really
Db|---------------------------| x3   listen for this.
Ab|-12-10-8-----12-10-8--/-10-|      It's there =).)
Db|---------------------------|

Chorus [4:17-4:14]
eb|--------------------------------|
Bb|--------------------------------|
Gb|--------------------------------|
Db|-0-----3-----5-----8-----10-----|
Ab|-0-x16-3-x16-5-x16-8-x16-10-x16-|
Db|-0-----3-----5-----8-----10-----|

Chorus [4:19-4:14]
eb|----------------------------|
Bb|----------------------------|
Gb|-14-12-10-5---14-12-10-/-12-|
Db|----------------------------| x2
Ab|-12-10-8--3---12-10-8--/-10-|
Db|----------------------------|

Outro [4:30-4:34]
eb|-----|
Bb|-----|
Gb|-----|
Db|-000-| x14
Ab|-000-|
Db|-000-|
PM  ...
    ^V^

Outro [4:35-4:36]
eb|---|
Bb|---|
Gb|---|
Db|-0-|
Ab|-0-|
Db|-0-|

Legend:
===============================================================================
| V  Downstroke
| .  Palm Mute
| p  Pull-Off
| x  Mute Note
| /  Slide Up
| ^  Upstroke
| ~  Vibrato
===============================================================================





Comments


Popular Trapt tabs & chords
Headstrong 1 Bass Tabs
Lost Realist Bass Tabs
Sarthopor Chords
Headstrong 3 Tabs
Influence Tabs
Lost Realist Tabs
Lost Realist 1 Tabs
New Beginning 3 Tabs
Still Frame 1 Tabs
Still Frame 2 Tabs


Song lyrics



↑ Back to top | Tablatures and chords are parodies/interpretations of the original songs. You may use it for private study, scholarship, research or language learning purposes only
© 2014 AZChords.com Contact us | Privacy policy | DMCA | Add/correct tabs | Request tabs | Top 50 tabs