» » »

Trapt, Enigma Tabs (ver.1)

Artists:  A B C D E F G H I J K L M N O P Q R S T U V W X Y Z # 

Enigma Tabs (ver.1)

Trapt Tabs
 Rating:
4/5 (10 votes)
Enigma lessons Tabs too difficult? Try these video lessons and learn fast
                Band- Trapt
Song- Enigma

Standard tuning

intro: w/ flanger, clean
e ---------------------------------------------------|
b ---------------------------------------------------|
g ----------9------------------------9---------------|
d -9------9---9--------7----9------9---9--------7----|
a --------------7------------------------7-----------|
E ---------------------------------------------------|

verse: (i use a phaser) clean
e --------------------------------------------|
b --------------------------------------------|
g --------------------------------------------|
d ----9---------7--------12---------10--------|
a -0-----10--0-----9--0------14--0------12----|
E --------------------------------------------|

e ---------------------------------------------------|
b -------8------------8------------------------------|
g -----0---0--------0---0----------------------------|
d ---9-------9----9-------9--------------------------|
a -7------------7------------------------------------|
E ---------------------------------------------------|

Chorus distorted:
e ----------------------------------------------------|
b -10-10-10--8-8-8--7-7-7--8-8-8----------------------|
g ----------------------------------------------------|X 3 then:
d -7--7--7---5-5-5--4-4-4--5-5-5----------------------|
a ----------------------------------------------------|
E ----------------------------------------------------|

e ---------------------------------------------------|
b -/15--15-15-15-15--15-15-15-15--15-15-15-15--------|
g ---------------------------------------------------|
d -/12--12-12-12-12--12-12-12-12--12-12-12-12--------|
a ---------------------------------------------------|
E ---------------------------------------------------|

part at 2:09, distorted:
e ---------------------------------------------------|
b -8-8-8-8-7---------8-8-8-8-7-----------------------|
g -----------9-7~--------------9-7~------------------|
d ---------------------------------------------------|
a ---------------------------------------------------|
E ---------------------------------------------------|

then:
e -14------12-----10-----8-------------------------------------|
b ----------------------------/10-8-7-7h8-7----/10-8-7-8~~-----|
g ----11\\9----9\\7----7\\5--------------------9---------------|
d -------------------------------------------------------------|
a -------------------------------------------------------------|
E -------------------------------------------------------------|

part at 2:32, w/ delay and flanger:
e ---------------------------------------------------|
b -8~~------8---8------10----(10)----8----(8)--------|
g ---------------------------------------------------|
d --------9---9--------------------------------------|
a ---------------------------------------------------|
E ---------------------------------------------------|

cont:
e ---------------------------------------------------|
b -7h8-7----(7h8-7-----------------------------------|
g -------7---------7)--7/9--(7/9)--------------------|
d ---------------------------------------------------|
a ---------------------------------------------------|
E ---------------------------------------------------|

\"Don\'t be the one to...\" (2:56)
e ---------------------------------------------------|
b ---------------------------------------------------|
g ---------------------------------------------------|
d -7-7-7-7-7-7--3-3-3-3--7-7-7-7-7-7--5-5-5-5--------|
a -7-7-7-7-7-7--3-3-3-3--7-7-7-7-7-7--5-5-5-5--------|
E -5-5-5-5-5-5--1-1-1-1--5-5-5-5-5-5--3-3-3-3--------|


that\'s all the parts, you can piece it together.
            
Submit corrections

comments powered by Disqus
↑ Back to top | Trapt Tabs for Enigma. Lyrics for acoustic guitar and electric guitar. Tablatures and chords are parodies/interpretations of the original songs. You may use it for private study, scholarship, research or language learning purposes only