» » »

Trapt, Enigma Chords (ver.1)

Artists:  A B C D E F G H I J K L M N O P Q R S T U V W X Y Z # 

Enigma Chords (ver.1)

Trapt Tabs
 Rating:
3.4/5 (5 votes)
Enigma lessons Tabs too difficult? Try these video lessons and learn fast
                "Enigma"
G                 E                   A 
Do we know how to  get the message across
                       C               G
We turn the lights off  to find a way out
                       E                   A
No time to get through  to grasp what was lost
                         C                     Asus2
Don't turn the light off  and leave me in the (dark)
-[chorus]
Asus2      Em      G          C
Hey, I'm pleading, my soul is bleeding
Asus2                    Em    G            C          Asus2 E  
I don't want to be left alone, not when I'm right next to    you
Asus2           Em     G          C
What are you thinking, it's so misleading
Asus2               Em    G                 C        Asus2     E
Is it not for me to know, I think it's just hard for you to show

G                    E               A 
We never spoke in the words that we want
                      C               G
We turn the lights off to find a way out
                  E                    A   
We've never chosen to keep what we've got
                         C                    Asus2
Don't turn the light off and leave me in the (dark)

-[chorus]
Asus2      Em      G          C
Hey, I'm pleading, my soul is bleeding
Asus2                    Em    G            C          Asus2 E  
I don't want to be left alone, not when I'm right next to    you
Asus2           Em     G          C
What are you thinking, it's so misleading
Asus2               Em    G                 C        Asus2     E
Is it not for me to know, I think it's just hard for you to show
(im not sure about this solo!?)
[clean]
e|-------------------------------------------------------------------------|
B|-------------------------------------------------------------------------|
G|-------------------------------------------------------------------------|
D|---------------------5---5-----------------------------------------------|
A|--7-------------5----------------7--------5---------3--3-----------------|
E|-----5------5----------------5-------5--------3--------------------------|
    I thought it would be nice to lie down and close my eyes

e|-------------------------------------------------------------------------|
B|-------------------------------------------------------------------------|
G|-------------------------------------------------------------------------|
D|-------------------5--5--------------------------------------------------|
A|----7---------5----------------7------5----3-0~~~~-----------------------|
E|-5------5-5---------------5--------5-----3-------------------------------|
   It never occurred to me that I am already asleep
[gain(distorted)]
Am                   Em
Don't be the one to, 
Am                  Em
Don't be the one to let it go
G                    C
Don't be the one to, 
G                   C 
Don't be the one to be alone
Am                   Em
Don't be the one to, 
Am                  Em
Don't be the one to let it go
G                   C 
Don't be the one to be alone

this SOLO is the same chords as the verses (Asus2,Em,G,C)


Asus2      Em      G          C
Hey, I'm pleading, my soul is bleeding
Asus2                    Em    G            C          Asus2 E  
I don't want to be left alone, not when I'm right next to    you
Asus2           Em     G          C
What are you thinking, it's so misleading

Asus2                    Em
I don't want to be left alone.x4
 C                      E
(Noone wants to be left alone.)

ok thats all, tell me what you think.
            
Submit corrections

comments powered by Disqus
↑ Back to top | Trapt Chords for Enigma. Lyrics for acoustic guitar and electric guitar. Tablatures and chords are parodies/interpretations of the original songs. You may use it for private study, scholarship, research or language learning purposes only