» » »

Disconnected Tabs (ver.1)

Artists:  A B C D E F G H I J K L M N O P Q R S T U V W X Y Z # 

Disconnected Tabs (ver.1)

Trapt
Rating:
2/5 (1 vote)

Tabs too difficult? Try these video lessons and learn fast.
                Tuning: Drop B (B,F#,B,E,G#,C#,)

Notes: I finally have this tab complete. It took me months to figure
out the verse. It seems like there may be a single note or two that are
missing...if i figure it out i will update. Thank you, enjoy, please rate, 
and leave comments.

Intro Part 1: Clean, volume swell.
|-15--15------------|
|---15--15----------|
|-----------12--12--| Play several times
|-------------12--12| until song breaks out
|-------------------|
|-------------------|

Intro: Dist.
|-----------------------------------------|
|-----------------------------------------|
|-----------------------------------------|
|-----------------------------------------|x2
|-----------------------------------------|
|-0-00-12--0-00-12--0-00-12--12-10-10-----|

Verse: Clean, reverb
|---------15-------------------15--15-----|
|-----------15--15--------15-----12--12---|
|---12------------12----12--12------------|
|-----14------------14--------------------|x5
|-12--------------------------------------|
|-----------------------------------------|

Pre Chorus: "too out of touch to touch you"
|-----------------------------------------|
|-----------------------------------------|
|-----------------------------------------|
|-----------------------------------------|x2
|-----------------------------------------|
|-0-00-12--0-00-12--0-00-12--12-10-10-----|

|-----------------------------------------|
|-----------------------------------------|
|-----------------------------------------|
|-0-00-14--0-00-14--0-00-14--14-12-12-----|x2
|-0-00-12--0-00-12--0-00-12--12-10-10-----|
|-0-00-12--0-00-12--0-00-12--12-10-10-----|

Chorus: Guitar 1
|-----------------------------------------|
|-----------------------------------------|
|-----------------------------------------|
|-9-9-9-9-12-12-12-12-10-10-10-10-7-7-7-7-|x2
|-9-9-9-9-12-12-12-12-10-10-10-10-7-7-7-7-|
|-9-9-9-9-12-12-12-12-10-10-10-10-7-7-7-7-|

|-----------------------------------------|
|-----------------------------------------|
|-11/14~--8~-------10~-11/14~--10~-------8|
|-----------------------------------------|x2
|-----------------------------------------|
|-----------------------------------------|

Verse: x5

Pre Chorus: Each part twice.

Chorus: 2x
 
Interlude: Clean Reverb
|---------------------------15-------------|
|-------15--15--15------------15--15--15---|
|---12----12--12--12---12-----------12--12-|
|-----14------------------14---------------|x4
|-12----------------12---------------------|
|------------------------------------------|

Then: Distortion
|----------|
|----------|
|----------|
|----------|
|----------|
|-12-10-10-|

Pre Chorus: Each part twice

Chorus: x a bunch...i lost count at like 5 or 6

End:
|-----------------------------|
|-----------------------------|
|-----------------------------|
|----------------------0*~~~--|
|----------------------0*~~~--|
|-10-10-10s12-12-12-12r0*~~~--|

Thats all folks...i hope this tab is sastisfactory. It took me 
forever to figure out the verse. Please rate and comment
            
Tabs too difficult? Try these video lessons and learn fast.




comments powered by Disqus
↑ Back to top | Tablatures and chords are parodies/interpretations of the original songs. You may use it for private study, scholarship, research or language learning purposes only