» » »

Trapt, Curiosity Kills Bass tabs (ver.1)

Artists:  A B C D E F G H I J K L M N O P Q R S T U V W X Y Z # 

Curiosity Kills Bass tabs (ver.1)

Trapt Tabs
Rating:
0/5 (0 votes)
Curiosity Kills lessons Tabs too difficult? Try these video lessons and learn fast
                --------------------------------------------------------------------------------
--------------------------------------------------------------------------------


Tuning: Standard 5 string (BEADG)

Intro

G|----------------|----------------|----------------|----------------|
D|----------------|----------------|----------------|----------------|
A|----------------|----------------|----------------|----------------|
E|----------------|----------------|----------------|----------------|
B|2-0-2-022-0-2---|2-0-2-022-0-2---|2-0-2-022-0-2---|2-0-2-022-0-0000|

Verse x 2

G|----------------|----------------|----------------|----------------|
D|------------6~--|----------------|----------------|----------------|
A|4-4--4-4~-------|7--7--77~-------|------------4~--|----------------|
E|----------------|----------------|2-2--2-2~-------|5--5--55~-------|
B|----------------|----------------|----------------|----------------|

Pre-Chorus x 2

G|----------------|----------------|----------------|----------------|
D|----------------|----------------|----------------|----------------|
A|----------------|----------------|----------------|----------------|
E|----------------|5---5---5---5/77|----------------|5---5---5---5/77|
B|2-0-2-022-0-2/55|----------------|2-0-2-022-0-2/55|----------------|

Chorus x 2

G|----------------|----------------|----------------|----------------|
D|----------------|----------------|----------------|----------------|
A|----------------|----------------|----------------|----------------|
E|----------------|----------------|----------------|5-5--5-5--------|
B|2-2~------------|5-5~------------|0-0~------------|----------------|

Verse x 4

Pre-Chorus x 2

Chorus x 2

Bridge

G|----------------|----------------|----------------|----------------|
D|----------------|----------------|----------------|----------------|
A|----------------|----------------|----------------|----------------|
E|----------------|----------------|----------------|----------------|
B|2-2~------------|2-2~------------|2-2~------------|2-2-2---2-2-2220|

G|----------------|----------------|----------------|----------------|
D|----------------|----------------|----------------|----------------|
A|----------------|----------------|----------------|----------------|
E|----------------|----------------|----------------|----------------|
B|2-0-2-02-2002-0-|2-0-2-02-2002-0-|2-0-2-02-2002-0-|2-0-2-02-2002-0-|

G|----------------|----------------|----------------|----------------|
D|----------------|----------------|----------------|----------------|
A|----------------|----------------|----------------|----------------|
E|----------------|----------------|----------------|----------------|
B|2-0-2-02-2002-0-|2-0-2-02-2002-0-|2-0-2-02-2002-0-|2-0-2-02-2002-0-|

G|----------------|----------------|----------------|----------------|
D|----------------|----------------|----------------|----------------|
A|----------------|----------------|----------------|----------------|
E|----------------|----------------|----------------|------------5777|
B|2-0-2-02-2002-0-|2-0-2-02-2002-0-|2-0-2-02-2002-0-|2-0-2-02-20-----|

Pre-Chorus x 2

Chorus x 4

Outro

G|----------------|----------------|----------------|----------------|
D|----------------|----------------|----------------|----------------|
A|----------------|----------------|----------------|----------------|
E|----------------|----------------|----------------|----------------|
B|2-0-2-022-0-2---|2-0-2-022-0-2---|2-0-2-022-0-2---|2-0-2-02~-------|

G|----------------|----------------|----------------|----------------|
D|----------------|----------------|----------------|----------------|
A|----------------|----------------|----------------|----------------|
E|----------------|5-5-55-5-5-55-5-|2-2-22-2-2-22-2-|4-4-44-4-4-44-4-|
B|2-2-22-2-2-22-2-|----------------|----------------|----------------|

G|----------------|
D|----------------|
A|----------------|
E|9/--------------|
B|----------------|


| /  slide up
| \  slide down
| h  hammer-on
| p  pull-off
| ~  hold note
|( ) ghost note
| +  harmonic
| x  mute note
================================================================================
            
Submit corrections

comments powered by Disqus
↑ Back to top | Trapt Bass for Curiosity Kills. Lyrics for acoustic guitar and electric guitar. Tablatures and chords are parodies/interpretations of the original songs. You may use it for private study, scholarship, research or language learning purposes only