>
 >
Contagious

Contagious Guitar Tabs

Trapt - Contagious chords, tabs, tablatures, lyrics

Guitar lessons | Add/correct | Request | Top 50 tabs Artists:  A B C D E F G H I J K L M N O P Q R S T U V W X Y Z 0-9

Contagious Guitar Tabs – Trapt

CD, Sheet music, Poster

Do you like Contagious? Share with your friends now
Bass TabsTabsTabs v2
Trapt
Standard


Intro:
|-----------------------------------------------------|
|-----------------------------------------------------|
|----7/99-----7/9999-----------------1010101010101010-|
|-77-x--x-7-7-x--xxx-1010101010101010x-x-x-x-x-x-x-x--|
|-77-5/77-7-7-5/7777-10101010101010108-8-8-8-8-8-8-8--|
|-55------5-5--------8-8-8-8-8-8-8-8------------------|

|---------------------------------------------|
|---------------------------------------------|
|----7/99-----7/9999--------------------------|
|-77-x--x-7-7-x--xxx-101010101010101055555555-|
|-77-5/77-7-7-5/7777-101010101010101055555555-|
|-55------5-5--------8-8-8-8-8-8-8-8-33333333-|

Verse:
|------0-------0-------0-------0-|
|-----3-------3-------3-------3--|
|----0-------0-------0-------0---|
|--------------------------------|
|-0-------3----------------------|
|-----------------3-------3------|
I was sick of restrictions, sick of the boundaries, about to close the door
Such a lack of conviction, no real connection, what should I settle for

|-----------------------------------------------|--------|
|-----------------------------------------------|--------|
|-12/141414-1414-7/999-99-5/777-77-7/99-10-10\9-|--------|
|-x----x-x--x-x--x--xx-xx-x--xx-xx-x--x-x--x----|-55--55-|
|-10/121212-1212-5/777-77-3/555-55-5/77-8--8\-7-|-55--55-|
|-----------------------------------------------|-33--33-|
But you caught my attention, you built on the tension, and you left me wanting more
Now I don't know what to do with myself, do with myself, I don't want nobody else

Pre-Chorus:
|--------------------------------------------------|
|--------------------------------------------------|
|---------------------------------1010101010101010-|
|-777777777777777710101010101010101010101010101010-|
|-777777777777777710101010101010108-8-8-8-8-8-8-8--|
|-55555555555555558-8-8-8-8-8-8-8------------------|
I let you in, I let you in and you infected me
Can't get enough of you, can't get enough of you

|------------------------------------------|
|------------------------------------------|
|------------------------------------------|
|-7777777777777777101010101010101055555555-|
|-7777777777777777101010101010101055555555-|
|-55555555555555558-8-8-8-8-8-8-8-33333333-|
I breathed you in, I breathed you in and now I'm in too deep
Don't think I'm pulling through, don't think I'm pulling through

|------------------------------------------|
|------------------------------------------|
|---------------------------------77777777-|
|-3333333333333333101010101010101077777777-|
|-3333333333333333101010101010101055555555-|
|-11111111111111118-8-8-8-8-8-8-8----------|
Can't get enough of you, can't get enough of you

Chorus:
|--------------------------------------------------|
|--------------------------------------------------|
|---------1010101010101010-------------------------|
|-777777771010101010101010101010101010101055555555-|
|-777777778-8-8-8-8-8-8-8-101010101010101055555555-|
|-55555555----------------8-8-8-8-8-8-8-8-33333333-|
1. You're so contagious Running through my veins
2. You're so contagious And I can't get away

|--------------------------------------------------|
|--------------------------------------------------|
|---------1010101010101010----------------77777777-|
|-777777771010101010101010101010101010101077777777-|
|-777777778-8-8-8-8-8-8-8-101010101010101055555555-|
|-55555555----------------8-8-8-8-8-8-8-8----------|
You're so contagious Hangin’ onto every word
You're so contagious and now I know for sure there is no cure

Verse2
I saw your intentions I gave you
permission Go ahead and start the war
I was out of addictions by my own
admission oh I've been keeping score
but you made an exception you taught me a lesson
Who cares where I've been before
You would never leave me all by myself, all by
myself you don't want nobody else

Bridge

Chorus

I am burning in your fire (there is no cure)
I have only one desire (there is no cure)
(I can not deny her)
Now I don't know what to do with myself, do
with myself (there is no cure)
Now I don't know what to do with myself, do with
myself I don't want nobody else

Bridge

Chorus

You keep running, you keep running, you keep
running through my veins [x4] 
(You're so contagious, there is no cure, you're so contagious)




Trapt Contagious Lyrics:
I was sick of restrictions sick of the boundaries about to close the door
Such a lack of conviction no real connection what should I settle for
But you caught my attention you built on the tension and you left me wanting more
Now I don't know what to do with myself do with myself I don't want nobody else

[Bridge:] 
I let you in I let you in and you infected me
Can't get enough of you Can't get enough of you
I breathed you in I breathed you in and now I'm in too deep
Don't think I'm pulling through Don't think I'm pulling through
Can't get enough of you Can't get enough of you

[chorus:] 
You're so contagious Running through my veins
you're so contagious Hangin onto every word
You're so contagious And I can't get away
You're so contagious and now I know for sure there is no cure

I saw your intentions I gave you permission Go ahead and start the war
I was out of addictions by my own admission oh I've been keeping score
But you made an exception you taught me a lesson Who cares where I've been before
You would never leave me all by myself, all by myself you don't want nobody else

[Bridge] 

[chorus] 

I am burning in your fire (there is no cure)
I have only one desire (there is no cure)
(I can not deny her)
Now I don't know what to do with myself, do
with myself (there is no cure)
Now I don't know what to do with myself, do with
myself I don't want nobody else

[Bridge] 

[chorus] 

You keep running, you keep running, you keep
running through my veins [x4] 
(You're so contagious, there is no cure, you're so contagious)





Comments


Popular Trapt tabs & chords
Avelyn Acoustic Intro Tabs
Black Rose Tabs
Headstrong 5 Tabs
Lost Realist 1 Tabs
New Beginning 1 Tabs
Sound Off Tabs
Stand Up 2 Tabs
Stay Alive Tabs
When All Is Said And Done Tabs
Stories Ukulele


Song lyrics



↑ Back to top | Tablatures and chords are parodies/interpretations of the original songs. You may use it for private study, scholarship, research or language learning purposes only
© 2014 AZChords.com Contact us | Privacy policy | DMCA | Add/correct tabs | Request tabs | Top 50 tabs