» » »

Trapt, Contagious Bass tabs (ver.1)

Artists:  A B C D E F G H I J K L M N O P Q R S T U V W X Y Z # 

Contagious Bass tabs (ver.1)

Trapt Tabs
 Rating:
4/5 (4 votes)
Contagious lessons Tabs too difficult? Try these video lessons and learn fast
1
                --------------------------------------------------------------------
--------------------------------------------------------------------


Tuning: Standard (EADG)

Intro

G|----------------|----------------|----------------|----------------|
D|----------------|----------------|----------------|----------------|
A|---577-----5777-|3-333-3---------|---577-----5777-|3-333-3---------|
E|55-----5-5------|-------1-11-111-|55-----5-5------|-------3-33-333-|

Verse

G|----------------|----------------|----------------|----------------|
D|----------------|----------------|----------------|----------------|
A|-------3~-------|----------------|-------3~-------|----------------|
E|5~--------------|3~-----3~-------|5~--------------|3~-----3~-------|

G|----------------|----------------|----------------|----------------|
D|----------------|----------------|----------------|----------------|
A|-------3~-------|----------------|-------3~-------|----------------|
E|5~--------------|3~-----3~-------|5~--------------|3~------33--33--|

Pre-Chorus

G|----------------|----------------|----------------|----------------|
D|----------------|----------------|----------------|----------------|
A|----------------|3333333---------|----------------|3333333---------|
E|5555555555555555|-------111111111|5555555555555555|-------333333333|

G|----------------|----------------|
D|----------------|----------------|
A|----------------|3333333555555555|
E|1111111111111111|----------------|

Chorus x 2

G|----------------|----------------|----------------|----------------|
D|----------------|----------------|----------------|----------------|
A|-------8-88-888-|3-333-3---------|-------8-88-888-|3-333-35-55-555-|
E|5-555-5---------|-------3-33-3-33|5-555-5---------|----------------|

Verse

Pre-Chorus

Chorus x 2

Bridge pt.1

G|----------------|----------------|----------------|----------------|
D|----------------|----------------|----------------|----------------|
A|-------3-33-333-|----------------|-------3-33-333-|----------------|
E|555-5-5---------|111-1-11-11-111-|555-5-5---------|111-1-11-11-111-|

G|----------------|----------------|----------------|----------------|
D|----------------|----------------|----------------|----------------|
A|-------3-33-333-|----------------|-------3-33-333-|--------55555555|
E|555-5-5---------|111-1-11-11-111-|555-5-5---------|111-1-11--------|

Bridge pt.2

G|----------------|----------------|----------------|----------------|
D|----------------|----------------|----------------|----------------|
A|----------------|3333333---------|----------------|3333333---------|
E|55--------------|-------111111111|55--------------|-------333333333|

G|----------------|----------------|
D|----------------|----------------|
A|----------------|8888888888888888|
E|1111111111111111|----------------|

Chorus x 4

Outro

G|----------------|----------------|
D|----------------|----------------|
A|---577-----5777-|---5777---------|
E|55-----5-5------|55-----1~-------|


| /  slide up
| \  slide down
| h  hammer-on
| p  pull-off
| ~  hold note
|( ) ghost note
| +  harmonic
| x  mute note
================================================================================
            
Submit corrections

comments powered by Disqus
↑ Back to top | Trapt Bass for Contagious. Lyrics for acoustic guitar and electric guitar. 1 Tablatures and chords are parodies/interpretations of the original songs. You may use it for private study, scholarship, research or language learning purposes only