» » »

Bleed Like Me Tabs (ver.1)

Artists:  A B C D E F G H I J K L M N O P Q R S T U V W X Y Z # 

Bleed Like Me Tabs (ver.1)

Trapt
Rating:
4/5 (4 votes)

Hard to play? Try these video lessons and learn fast.
                -------------------------------------------------------------------------------
-------------------------------------------------------------------------------

Tuning: Standard

Introduction (Clean) [0:01-0:30]
e|---0-------0------0------------|
B|-------3---------------3-------|
G|-----4---4-----------4---4-----|
D|---------------------------5-4-| x6
A|-2-----------------------------|
E|----------------3--------------|

Verse (Distortion) [0:31-0:40]
e|-----------------------------------------|
B|-----------------------------------------|
G|-----------------------------------------|
D|-9--9-9-9--9-9-10-10----5--5-5-5--7-7--7-| x2
A|-9--9-9-9--9-9-10-10----5--5-5-5--7-7--7-|
E|-7--7-7-7--7-7-8--8-----3--3-3-3--5-5--5-|

Chorus (Distortion) [0:41-1:00]
e|-------------------------------------------------------|
B|-------------------------------------------------------|
G|-------------------------------------------------------|
D|-9-9-9-9--10--10-10--10-10-10---5-5-5-5--4--4-4--4-4-4-| x4
A|-9-9-9-9--10--10-10--10-10-10---5-5-5-5--4--4-4--4-4-4-|
E|-7-7-7-7--8---8--8---8--8--8----3-3-3-3--2--2-2--2-2-2-|

Bridge (Clean) [1:01-1:06]
e|---0----------0------|
B|-------3-----------3-|
G|-----4-----------4---|
D|---------------------|
A|-2-------------------|
E|------------3--------|

Pre-Verse (Clean) [1:07-1:25]
e|---0-------0------0------------|
B|-------3---------------3-------|
G|-----4---4-----------4---4-----|
D|---------------------------5-4-| x4
A|-2-----------------------------|
E|----------------3--------------|

Verse (Distortion) [1:26-1:35]
e|-----------------------------------------|
B|-----------------------------------------|
G|-----------------------------------------|
D|-9--9-9-9--9-9-10-10----5--5-5-5--7-7--7-| x2
A|-9--9-9-9--9-9-10-10----5--5-5-5--7-7--7-|
E|-7--7-7-7--7-7-8--8-----3--3-3-3--5-5--5-|

Chorus (Distortion) [1:36-1:50]
e|-------------------------------------------------------|
B|-------------------------------------------------------|
G|-------------------------------------------------------|
D|-9-9-9-9--10--10-10--10-10-10---5-5-5-5--4--4-4--4-4-4-| x3
A|-9-9-9-9--10--10-10--10-10-10---5-5-5-5--4--4-4--4-4-4-|
E|-7-7-7-7--8---8--8---8--8--8----3-3-3-3--2--2-2--2-2-2-|

Chorus (Distortion) [1:51-1:56]
e|------------------------------------------------|
B|------------------------------------------------|
G|------------------------------------------------|
D|-9-9-9-9--10--10-10--10-10-10---5-5-5-5-5-5-5-5-|
A|-9-9-9-9--10--10-10--10-10-10---5-5-5-5-5-5-5-5-|
E|-7-7-7-7--8---8--8---8--8--8----3-3-3-3-3-3-3-3-|

Chorus (Distortion) [1:57-1:58]
e|-----------------|
B|-----------------|
G|-----------------|
D|-12-12-12-12--13-|
A|-12-12-12-12--13-|
E|-10-10-10-10--11-|

Bridge (Clean) [1:59-2:03]
e|---0----------0--------|
B|-------3-----------3---|
G|-----4-----------4---4-|
D|-----------------------|
A|-2---------------------|
E|------------3----------|

Bridge (Clean) [2:04-2:23]
e|----------------------------|
B|-6p7p6p7--------6p7p6p7-----|
G|----------7-7-----------4-4-|
D|----------------------------| x4
A|----------------------------|
E|----------------------------|

Verse (Distortion) [2:24-2:38]
e|-----------------------------------------|
B|-----------------------------------------|
G|-----------------------------------------|
D|-9--9-9-9--9-9-10-10----5--5-5-5--7-7--7-| x3
A|-9--9-9-9--9-9-10-10----5--5-5-5--7-7--7-|
E|-7--7-7-7--7-7-8--8-----3--3-3-3--5-5--5-|

Verse (Distortion) [2:39-2:46]
e|--------------------------------------------------|
B|--------------------------------------------------|
G|--------------------------------------------------|
D|-9--9-9-9--9-9-10-10----5--5-5-5--5-5-5-5-5-5-5-5-|
A|-9--9-9-9--9-9-10-10----5--5-5-5--5-5-5-5-5-5-5-5-|
E|-7--7-7-7--7-7-8--8-----3--3-3-3--3-3-3-3-3-3-3-3-|

Chorus (Distortion) [2:47-3:11]
e|-------------------------------------------------------|
B|-------------------------------------------------------|
G|-------------------------------------------------------|
D|-9-9-9-9--10--10-10--10-10-10---5-5-5-5--4--4-4--4-4-4-| x5
A|-9-9-9-9--10--10-10--10-10-10---5-5-5-5--4--4-4--4-4-4-|
E|-7-7-7-7--8---8--8---8--8--8----3-3-3-3--2--2-2--2-2-2-|

Chorus (Distortion) [3:12-3:16]
e|--------------------------------------------------|
B|--------------------------------------------------|
G|--------------------------------------------------|
D|-9-9-9-9--10--10-10--10-10-10---5-5-5-5-5-5-5-5-5-|
A|-9-9-9-9--10--10-10--10-10-10---5-5-5-5-5-5-5-5-5-|
E|-7-7-7-7--8---8--8---8--8--8----3-3-3-3-3-3-3-3-3-|

Outro (Distortion) [3:16-3:18]
e|----------------------|
B|----------------------|
G|----------------------|
D|-9-9-9-9--10-10-10-10-|
A|-9-9-9-9--10-10-10-10-|
E|-7-7-7-7--8--8--8--8--|

Outro (Distortion) [3:19-3:24]
e|-----------------------------------------|
B|-----------------------------------------|
G|-----------------------------------------|
D|-9--9-9-9--9-9-10-10----5--5-5-5--7-7--7-|
A|-9--9-9-9--9-9-10-10----5--5-5-5--7-7--7-|
E|-7--7-7-7--7-7-8--8-----3--3-3-3--5-5--5-|


Legend
===============================================================================
| p  Pull off
===============================================================================
            
Hard to play? Try these video lessons and learn fast. | Correct




comments powered by Disqus
↑ Back to top | Tablatures and chords are parodies/interpretations of the original songs. You may use it for private study, scholarship, research or language learning purposes only