>
 >
Black Rose

Black Rose Guitar Tabs

Trapt - Black Rose chords, tabs, tablatures, lyrics

Guitar lessons | Add/correct | Request | Top 50 tabs Artists:  A B C D E F G H I J K L M N O P Q R S T U V W X Y Z 0-9

Black Rose Guitar Tabs – Trapt

CD, Sheet music, Poster

Do you like Black Rose? Share with your friends now
Bass TabsTabs
-------------------------------------------------------------------------------
-------------------------------------------------------------------------------

Author's Note: If you find any mistakes or things missing please send
               these flaws to my E-mail. They will be reviewed by me
               and if valid, reposted! =)

Tuning: Standard

Introduction [0:00-0:40]
e|------------------------------------------|
B|----6--6--6--6-6--------------------------|
G|---7--7--7--7-7-7----9---9---9---9---9----|
D|--7--7--7--7----------10--10--10--10--10--| x6
A|-5------------------7---7---7---7---7---7-|
E|------------------------------------------|
PM ........................................

Verse [0:40-0:51]
e|-------------------|
B|-------------------|
G|-10---10---10---12-|
D|-10---10---10---12-| x2
A|-8----8----8----10-|
E|-------------------|

Chorus [0:53-1:19]
e|---------------------------------------------------------------------|
B|---------------------------------------------------------------------|
G|-777777--------------------------------------------------------------|
D|-777777-8-88888-8-10-10-10-10-10--8-10-10-10-10-10--8-10-10-10-10-10-| x4
A|-555555-8-88888-8-10-10-10-10-10--8-10-10-10-10-10--8-10-10-10-10-10-|
E|--------6-66666-6/8--8--8--8--8---6/8--8--8--8--8---6/8--8--8--8--8--|
MT:                          x  x              x  x              x  x

Pre-Verse [1:20-1:46]
e|------------------------------------------|
B|----6--6--6--6-6--------------------------|
G|---7--7--7--7-7-7----9---9---9---9---9----|
D|--7--7--7--7----------10--10--10--10--10--| x4
A|-5------------------7---7---7---7---7---7-|
E|------------------------------------------|
PM ........................................

Verse [1:47-1:59]
e|-------------------|
B|-------------------|
G|-10---10---10---12-|
D|-10---10---10---12-| x2
A|-8----8----8----10-|
E|-------------------|

Chorus [2:00-2:26]
e|---------------------------------------------------------------------|
B|---------------------------------------------------------------------|
G|-777777--------------------------------------------------------------|
D|-777777-8-88888-8-10-10-10-10-10--8-10-10-10-10-10--8-10-10-10-10-10-| x4
A|-555555-8-88888-8-10-10-10-10-10--8-10-10-10-10-10--8-10-10-10-10-10-|
E|--------6-66666-6/8--8--8--8--8---6/8--8--8--8--8---6/8--8--8--8--8--|
MT:                          x  x              x  x              x  x

Bridge [2:27-2:46]
e|-----------------------------------------------------|
B|-10-10-10-8-8-8------------10-10-10-8-8-8------------|
G|----------------7777777777----------------9999999999-|
D|-----------------------------------------------------| x3
A|-----------------------------------------------------|
E|-----------------------------------------------------|

Bridge [2:47-2:52]
e|--------------------------------------------|
B|-10-10-10-8-8-8------------10-10-10-8-8-8---|
G|----------------7777777777----------------9-|
D|--------------------------------------------|
A|--------------------------------------------|
E|--------------------------------------------|

Pre-Verse [2:54-3:04]
e|--------------------------------|
B|------------------------10------|
G|----9-10---7-8----9-10----10----|
D|--10------8-----10----------10--|
A|-8-------6-----8--------------8-|
E|--------------------------------|

Pre-Solo [3:07-3:17]
e|-------------------|
B|-------------------|
G|-10---10---10---12-|
D|-10---10---10---12-| x2
A|-8----8----8----10-|
E|-------------------|

Pre-Solo [3:17-3:22]
e|--------------|
B|--------------|
G|--------------|
D|-3-----5----5-|
A|-3-x16-5-x8-5-|
E|-1-----3----3-|

Solo [3:23-3:26]
e|-------------|    e|----|
B|-------------|    B|----| (This part
G|-------------|    G|----|  was confusing
D|-15-14-14-13-| x6 D|-15-|  to tab, yet
A|-------------|    A|----|  alone play
E|-------------|    E|----|  if you have
                             any suggestions
Solo [3:26-3:30]             on what to play
e|-------------|    e|----|  during these first
B|-------------|    B|----|  parts, please drop
G|-------------|    G|----|  an e-mail to me at
A|-------------|    A|----|  Thank you very much
E|-------------|    E|----|  and enjoy the tab!)

Solo [3:30-3:36]
e|---------------------------------------|
B|---------------------------------------|
G|---------------------------------------|
D|---15--19-15----15-----15--19-15----17-|
A|-17--17-----17-------17--17-----17-----|
E|---------------------------------------|

Chorus [3:37-4:03]
e|---------------------------------------------------------------------|
B|---------------------------------------------------------------------|
G|-777777--------------------------------------------------------------|
D|-777777-8-88888-8-10-10-10-10-10--8-10-10-10-10-10--8-10-10-10-10-10-| x4
A|-555555-8-88888-8-10-10-10-10-10--8-10-10-10-10-10--8-10-10-10-10-10-|
E|--------6-66666-6/8--8--8--8--8---6/8--8--8--8--8---6/8--8--8--8--8--|
MT:                          x  x              x  x              x  x

Outro [4:04-4:29]
e|--------------------------------------------|
B|-10-10-10-8-8-8------------10-10-10-8-8-8---|
G|----------------7777777777----------------9-|
D|--------------------------------------------| x4
A|--------------------------------------------|
E|--------------------------------------------|

Outro [4:30-4:42]
e|-10----------|
B|---10-11~/13-|
G|-------------|
D|-------------|
A|-------------|
E|-------------|

Legend:
===============================================================================
| .  Palm Mute
| x  Mute Note
| /  Slide Up
| ~  Vibrato
===============================================================================





Comments


Popular Trapt tabs & chords
Headstrong 1 Bass Tabs
Headstrong 2 Bass Tabs
Sarthopor Chords
Echo 4 Tabs
Headstrong (Intro) Tabs
Living In The Eye Of The Storm 1 Tabs
Ready When You Are Tabs
Sound Off 2 Tabs
Stories Tabs
Whos Going Home With You Tonight 1 Tabs


Song lyrics



↑ Back to top | Tablatures and chords are parodies/interpretations of the original songs. You may use it for private study, scholarship, research or language learning purposes only
© 2014 AZChords.com Contact us | Privacy policy | DMCA | Add/correct tabs | Request tabs | Top 50 tabs