» » »

Trans Siberian Orchestra, Christmas Canon Rock Tabs (ver.1)

Artists:  A B C D E F G H I J K L M N O P Q R S T U V W X Y Z # 

Christmas Canon Rock Tabs (ver.1)

Trans Siberian Orchestra Tabs
 Rating:
4/5 (4 votes)
Christmas Canon Rock lessons Tabs too difficult? Try these video lessons and learn fast
                Since I see people trying to put this tab online, and wanting a full version, I haven’t 
the time before, but now I have some free time so I was working on this song, so here is 
I came up with.
(Standard Tune)

(.33)
E-----------------|
B-----------------|
G-2-----6-7---7---|  (x2) These chords repeat through-out the song
D-2-2-4-6-7-7-7-2-|
A-0-2-4-4-5-7-5-2-|
E---0-2-----5---0-|

(1.06)
E-------------------------------------------------------|
B-15b17-14-15-15b17-14-15-15b17-------------------------|
G-------------------------------------13-14-16-18b19r18-|
D-------------------------------14-16-------------------|
A-------------------------------------------------------|
E-------------------------------------------------------|

E----------------------------------------------------------|
B----------------------------------------------------------|
G-14-16-18----------------------14-13-14----14-13----------|
D-------------12-14-16-14-12-14----------16-------16-14-12-|
A----------16----------------------------------------------|
E----------------------------------------------------------|

E------------------------------------------------------------------|
B---------------------------------------------------------14-15-17-|
G-------------------------------------13-14-------13-14-16---------|
D----------------12-14-16-12-16-14-16-------14-16------------------|
A-16-14-12-14-16---------------------------------------------------|
E------------------------------------------------------------------|
That repeats twice
Then it breaks into the piano and singing
(2.44)
E------------------|
B------------------|
G-2-----6-7---7----|  (x3)
D-2-2-4-6-7-7-7-2--|
A-0-2-4-4-5-7-5-2--|
E---0-2-----5---0--|

(3.34) The tapping solo *Tap 1*
*Tap all 17’s with right hand*
E-------------------------------------------------|
B-17-15-17-14-17-15-17-14-17-15-17-10-17-12-17-14-|
G-------------------------------------------------|
D-------------------------------------------------|
A-------------------------------------------------|
E-------------------------------------------------|

E-----------------------------------------------|
B-17-12-17-9-17-10-17-12-17-14-17-12-17-10-17-9-|
G-----------------------------------------------|
D-----------------------------------------------|
A-----------------------------------------------|
E-----------------------------------------------|
*Tap 2*
*Tap all 14’s with right hand*
E--------------------------------------------|
B-14-12-14-10-14-12-10-14-12-14-7-14-9-14-10-|
G--------------------------------------------|
D--------------------------------------------|
A--------------------------------------------|
E--------------------------------------------|

E------------------------------------------|
B-14-9-14-5-14-7-14-9-14-10-14-9-14-7-14-5-|
G------------------------------------------|
D------------------------------------------|
A------------------------------------------|
E------------------------------------------|
*Tap 3*
*Tap all 14’s with right hand*
E-----------------------------------------------|
B-----------------------------------------------|
G-14-13-14-11-14-13-14-11-14-13-14-7-14-9-14-11-|
D-----------------------------------------------|
A-----------------------------------------------|
E-----------------------------------------------|

E------------------------------------------|
B------------------------------------------|
G-14-9-14-6-14-7-14-9-14-11-14-9-14-7-14-6-|
D------------------------------------------|
A------------------------------------------|
E------------------------------------------|
*Tap 4*
  T     T     T     T     T     T    T    T
E-----------------------------------------------|
B-----------------------------------------------|
G-14-13-14-11-14-13-14-11-14-13-14-7-14-9-14-11-|
D-----------------------------------------------|
A-----------------------------------------------|
E-----------------------------------------------|
This should be correct, is also hard to play
  T        T          T           T
E---------------------------------------------|
B----------14-10-5-10-17-14-10-14-22-17-14-17-|
G-14-9-6-9------------------------------------|
D---------------------------------------------|
A---------------------------------------------|
E---------------------------------------------|

(3.50)
E-21-19-17-16--------------------|
B-------------19-17-15-17b19-17~-|
G--------------------------------|
D--------------------------------|
A--------------------------------|
E--------------------------------|
These are 2 sections of fast taps
  T        T          T           T
E---------------------------------------------|
B----------14-10-5-10-17-14-10-14-22-17-14-17-|
G-14-9-6-9------------------------------------|
D---------------------------------------------|
A---------------------------------------------|
E---------------------------------------------|
  T          T          T           T
E-----------------------------------------------|
B------------17-12-9-12-21-17-12-17-24-21-17-21-|
G-16-13-9-13------------------------------------|
D-----------------------------------------------|
A-----------------------------------------------|
E-----------------------------------------------|
Then back into main lead part
(4.07)
E-------------------------------------------------------|
B-15b17-14-15-15b17-14-15-15b17-------------------------|
G-------------------------------------13-14-16-18b19r18-|
D-------------------------------14-16-------------------|
A-------------------------------------------------------|
E-------------------------------------------------------|

E----------------------------------------------------------|
B----------------------------------------------------------|
G-14-16-18----------------------14-13-14----14-13----------|
D-------------12-14-16-14-12-14----------16-------16-14-12-|
A----------16----------------------------------------------|
E----------------------------------------------------------|

E------------------------------------------------------------------|
B---------------------------------------------------------14-15-17-|
G-------------------------------------13-14-------13-14-16---------|
D----------------12-14-16-12-16-14-16-------14-16------------------|
A-16-14-12-14-16---------------------------------------------------|
E------------------------------------------------------------------|

This repeats twice on the 2nd repeat there is a little harmonic in there, you can find 
easily by listening. On 2nd repeat the last part slows down gradually and then ends on G-14.
*****************Key*****************
15b17=full bend
15b17r15=full bend release back on 15
T=Tap
**************************************
This should be 100% correct, I checked some of the taps in powertab to see if they 
right.  Enjoi this masterpiece by TSO, it’s one of my favorites to play.
used my tab, I want to see how many people these tabs reach, and your comments on the tab.
            
Submit corrections

comments powered by Disqus
↑ Back to top | Trans Siberian Orchestra Tabs for Christmas Canon Rock. Lyrics for acoustic guitar and electric guitar. Tablatures and chords are parodies/interpretations of the original songs. You may use it for private study, scholarship, research or language learning purposes only