>
 >
Abysmal Emptiness

Abysmal Emptiness Guitar Tabs

Transmetal - Abysmal Emptiness chords, tabs, tablatures, lyrics

Guitar lessons | Add/correct | Request | Top 50 tabs Artists:  A B C D E F G H I J K L M N O P Q R S T U V W X Y Z 0-9

Abysmal Emptiness Guitar Tabs – Transmetal

CD, Sheet music, Poster

Do you like Abysmal Emptiness? Share with your friends now
Tabs
abysmal emptiness


transmetal





intro
   repeat
eb:---------------------------|
Bb:---------------------------|
Gb:---------------------------|
Db:---------------------------|
Ab:-1-0----------2-1-0--------|
Eb:-----3-2-1-0---------3-2-0-|


eb:----------------------------------------|
Bb:----------------------------------------|
Gb:----------------------------------------|
Db:----------------------------------------|
Ab:-2-2-2-2-2-2--3-3-3-3--2-2-2-2-2-2--5-4-|
Eb:-0-0-0-0-0-0--1-1-1-1--0-0-0-0-0-0--3-2-|

verse
eb:----------------------------------------|
Bb:----------------------------------------|
Gb:----------------------------------------|
Db:----------------------------------------|
Ab:-2-2-2-2-2-2--3-3-3-3--2-2-2-2-2-2--5-4-|
Eb:-0-0-0-0-0-0--1-1-1-1--0-0-0-0-0-0--3-2-|

     
:--------------------------------------------|
:--------------------------------------------|
:--------------------------------------------|
:--------------------------------------------|
:--------------------------------------------|
:-2-2-2-2-2--5-5-5-5-5--2-2-2-2-2--3-3-3-3-3-|

    
:----------------------------------------|
:----------------------------------------|
:----------------------------------------|
:----------------------------------------|
:----------------------------------3~~~~-|
:-2-2-2-2-2--5-5-5-5-5--2-2-2-2-2--------|
  
Helber gonmez torba

:--------------------------------------------|
:--------------------------------------------|
:--------------------------------------------|
:--------------------------------------------|
:--------------------------------------------|
:-2-2-2-2-2--5-5-5-5-5--2-2-2-2-2--3-3-3-3-3-|

    
:----------------------------------------|
:----------------------------------------|
:----------------------------------------|
:----------------------------------------|
:----------------------------------3~~~~-|
:-2-2-2-2-2--5-5-5-5-5--2-2-2-2-2--------|

  
:--------------------------------------------|
:--------------------------------------------|
:--------------------------------------------|
:--------------------------------------------|
:-4-4-4-4-4--7-7-7-7-7--4-4-4-4-4--5-5-5-5-5-|
:-2-2-2-2-2--5-5-5-5-5--2-2-2-2-2--3-3-3-3-3-|

    
:----------------------------------------|
:----------------------------------------|
:----------------------------------------|
:----------------------------------5-----|
:-4-4-4-4-4--7-7-7-7-7--4-4-4-4-4--3-----|
:-2-2-2-2-2--5-5-5-5-5--2-2-2-2-2--------|


:------------------|
:------------------|
:------------------|
:---------------2--|
:-1-0-----------0--|
:-----3-2-1-0------|

benito camela

:--------------------------------------------------|
:--------------------------------------------------|
:--------------------------------------------------|
:--------------------------------------------------|
:-2---------------------8--2---------------------7-|
:-0--0-0-0--0-0-0--3-0--6--0--0-0-0--0-0-0--3-0--5-|


:-------------------------------------------------------------|
:-------------------------------------------------------------|
:-------------------------------------------------------------|
:-------------------------------------------------------------|
:-2---------------------8-------------------------------------|
:-0--0-0-0--0-0-0--3-0--6--5-4-3-0--5-4-3-0--5-4-3-0--5-4-3-0-|


eb:------------------------------------------------------------------------|
Bb:------------------------------------------------------------------------|
Gb:------------------------------------------------------------------------|
Db:------------------------------------------------------------------------|
Ab:------------------------------------------------------------------------|
Eb:-5-4-3-0--5-4-3-0--5-4-3-0--5-4-3-0--3-2-1-0--3-2-1-0--3-2-1-0--3-2-1-0-|


eb:-------------------------------|
Bb:-------------------------------|
Gb:-------------------------------|
Db:-------------------------------|
Ab:------1-------------1--------3-|
Eb:-0-0----1-0--0-0-0-----1--0----|


eb:------------------|
Bb:------------------|
Gb:------------------|
Db:------------------|
Ab:-3-2---2--5-4---4-|
Eb:-----4--------6---|


eb:-------------------------------|
Bb:-------------------------------|
Gb:-------------------------------|
Db:-------------------------------|
Ab:------1-------------1--------3-|
Eb:-0-0----1-0--0-0-0-----1--0----|


eb:----------------------------------------|
Bb:----------------------------------------|
Gb:----------------------------------------|
Db:----------------------------------------|
Ab:-6-5---5------5-4---4------3-2---2------|
Eb:-----7---7-6------6---6-5------4---4-3--|


eb:-------------------------------|
Bb:-------------------------------|
Gb:-------------------------------|
Db:-------------------------------|
Ab:------1-------------1--------3-|
Eb:-0-0----1-0--0-0-0-----1--0----|


eb:-----------------------------------|
Bb:-----------------------------------|
Gb:-----------------------------------|
Db:-----------------------------------|
Ab:-3ah-2ah------2ah--5ah-4ah-----4ah-|
Eb:----------4ah--------------6ah-----|

eb:-------------------------------|
Bb:-------------------------------|
Gb:-------------------------------|
Db:-------------------------------|
Ab:------1-------------1--------3-|
Eb:-0-0----1-0--0-0-0-----1--0----|


eb:----------------------------------------|
Bb:----------------------------------------|
Gb:----------------------------------------|
Db:----------------------------------------|
Ab:-6-5---5------5-4---4------3-2---2------|
Eb:-----7---7-6------6---6-5------4---4-3--|

    
:--------------------------------|
:--------------------------------|
:--------------------------------|
:--------------------------------|
:-2--3--2-2-2-2--2-3--2-2-2-2--6-|
:-0--1--0-0-0-0--0-1--0-0-0-0--4-|

memo herdez

solo
:-16~~~~~---16AH--14h17p14----14------------------------------------------------------|
:--------------------------17----17-14h17p14-----14-----------------------------------|
:---------------------------------------------16----14h16p14-----14-------------------|
:-------------------------------------------------------------16-----16--14h16p14--16-|
:-------------------------------------------------------------------------------------|
:-------------------------------------------------------------------------------------|

eb:----------------------------------------------------------------------------------------|
Bb:----------------------17-17b-----------------------------3-4-6-4-3----------------------|
Gb:-14h16p14----14h16p14-------------3ah~~~~--3ah--3ah--3ah-----------5-2-3-5-3-2----------|
Db:----------16--------------------------------------------------------------------5-2-3-5-|
Ab:----------------------------------------------------------------------------------------|
Eb:----------------------------------------------------------------------------------------|
                            repeat                                            repeat
:-------------------------|-------------|----------------------------------|--------------|
:-------------------------|-11p9-11p9---|-11p9---9-11p9---9h11p9----9h11p9-|-11p9--11p9---|
:-------------------------|-----------8-|------8--------8---------8--------|------------8-|
:-3-2---------------------|-------------|----------------------------------|--------------|
:-----5-2-3-5-3-2--3b~~~--|-------------|----------------------------------|--------------|
:-------------------------|-------------|----------------------------------|--------------|

          |           repeat                 | 
eb:-------|-17-20-17-20-17----17-22-17-22-17-|-17-20-17-20-17------------------------------|
Bb:-11ah--|----------------20----------------|----------------20-17-20-17-20-17-15-18-15-18|
Gb:-------|----------------------------------|---------------------------------------------|
Db:-------|----------------------------------|---------------------------------------------|
Ab:-------|----------------------------------|---------------------------------------------|
Eb:-------|----------------------------------|---------------------------------------------|

:------------------------------------------------------------------------------------------|
:-14-17-14-17--12-15-12-15--11-13-11-13--9-12-9-12--7-10-7-10--6-9-6-9--5-8--4-7--3-6--3-5-|
:------------------------------------------------------------------------------------------|
:------------------------------------------------------------------------------------------|
:------------------------------------------------------------------------------------------|
:------------------------------------------------------------------------------------------|
                                                               repeat           repeat
:-----|----------------------------------------------------|----------------|-------------|
:-2-4-|-1h3p1h3p1h3p1h3p1h3p1h3p1--6h9p6h9p6---6h9p6h9p6---|-8h11p8h11p8----|----10h13p10-|
:-----|--------------------------------------8-----------8-|-------------10-|-12----------|
:-----|----------------------------------------------------|----------------|-------------|
:-----|----------------------------------------------------|----------------|-------------|
:-----|----------------------------------------------------|----------------|-------------|

:-----------------------------------|----------------------------------|
:----14h17p14--------------14-17-14-|-15h18p15--15h18p15--18b--18b~~~~-|
:-16-----------16p14h16p14----------|----------------------------------|
:-----------------------------------|----------------------------------|
:-----------------------------------|----------------------------------|
:-----------------------------------|----------------------------------|

alma madero

eb:----------------------------------------|
Bb:----------------------------------------|
Gb:----------------------------------------|
Db:----------------------------------------|
Ab:-2-2-2-2-2-2--3-3-3-3--2-2-2-2-2-2--5-4-|
Eb:-0-0-0-0-0-0--1-1-1-1--0-0-0-0-0-0--3-2-|


eb:------------------------------------------------|
Bb:------------------------------------------------|
Gb:------------------------------------------------|
Db:------------------------------------------------|
Ab:-2-2-2-2-2-2--3-3-3-3--6-6-6-6-6----------------|
Eb:-0-0-0-0-0-0--1-1-1-1--4-4-4-4-4--3-2-0--2-1-0--|


eb:--------------------------------------------------------------|
Bb:--------------------------------------------------------------|
Gb:--------------------------------------------------------------|
Db:--------------------------------------------------------------|
Ab:-2-2-2-2-2-2--3-3-3-3--2-2-2-2-2-2-------6-6-6----------------|
Eb:-0-0-0-0-0-0--1-1-1-1--0-0-0-0-0-0--4ah--4-4-4--3-2-0--2-1-0--|


eb:-----|
Bb:-----|
Gb:-----|
Db:-----|
Ab:-2---|
Eb:-0---|

alma marcela silva de alegria





Comments


Popular Transmetal tabs & chords
Dios Nos Agarre Confesados Tabs
Enviado Del Infierno Tabs
Exumado Tabs
Killers Tabs
Muerte En La Cruz Tabs
Muerte Violenta Tabs
Reino Maldito Tabs
Rostro Maligno Tabs
Vacio Abismal Tabs
Zona Muerta Tabs


Song lyrics



↑ Back to top | Tablatures and chords are parodies/interpretations of the original songs. You may use it for private study, scholarship, research or language learning purposes only
© 2014 AZChords.com Contact us | Privacy policy | DMCA | Add/correct tabs | Request tabs | Top 50 tabs