» » »

Train, Drops Of Jupiter Tabs (ver.1)

Artists:  A B C D E F G H I J K L M N O P Q R S T U V W X Y Z # 

Drops Of Jupiter Tabs (ver.1)

Train Tabs
Rating:
4/5 (20 votes)
Drops Of Jupiter lessons Tabs too difficult? Try these video lessons and learn fast
                

-|-0----0-1-0------0-1-----------------|-
-|-1----1-1-3----3-0-1---3-3-3b------3-|-
-|-0--------0----0---2---2-2-2b----2-2-|-
-|-2--2-----0--------3-------------3---|-
-|-3--3-----2--2-----3--3--------3-----|-
-|----------3--3-----1--1--------1-----|-
                                                                              

-|-0----0-1-0------0-1-----------------|-
-|-1----1-1-3----3-0-1---3-3-3b------3-|-
-|-0--------0----0---2---2-2-2b----2-2-|-
-|-2--2-----0--------3-------------3---|-
-|-3--3-----2--2-----3--3--------3-----|-
-|----------3--3-----1--1--------1-----|-
   "Now that she is back in the..."                                           

-|-0----0-1-0------0-1-----------------|-
-|-1----1-1-3----3-0-1---3-3-3b------3-|-
-|-0--------0----0---2---2-2-2b----2-2-|-
-|-2--2-----0--------3-------------3---|-
-|-3--3-----2--2-----3--3--------3-----|-
-|----------3--3-----1--1--------1-----|-
   "She acts like summer..."                                                  

-|-0----0-1-0------0-1------------------------------|-
-|-1----1-1-3----3-0-1----3-3-3-3-3-3-3-3-3-3-3-3-3-|-
-|-0--------0----0---2----2-2-0-2-2-2-2-2-0-2---0-2-|-
-|-2--2-----0--------3------------------------3-----|-
-|-3--3-----2--2-----3--3---------------------------|-
-|----------3--3-----1--1---------------------------|-
   "Since the return..."                                                      

-|-0--0-0-0-0-3-3--3-3-3-3-2-1--1-1-1-1-------1-1-1-1-|-
-|-1--1-1-1-1-3-3--3-3-3-3-3-1--1-1-1-1-------1-1-1-1-|-
-|-0--0-0-0-0-3-0--0-0-0-0-2-2--2-2-2-2-------2-2-2-2-|-
-|-2--2-2-2-2-3-0--0-0-0-0-0-3--3-3-3-3-3-3-3-3-3-3-3-|-
-|-3--3-3-3-3-3-2--2-2-2-2---3--3-3-3-3-3-3-3-3-3-3-3-|-
-|-3--3-3-3-3---3--3-3-3-3---1--1-1-1-1-1-1-1-1-1-1-1-|-
   "Well, tell me..."                                                         

-|-0--0-0-0-0-3-3--3-3-3-3-2-1--1-1-1-1-------1-1-1-1-|-
-|-1--1-1-1-1-3-3--3-3-3-3-3-1--1-1-1-1-------1-1-1-1-|-
-|-0--0-0-0-0-3-0--0-0-0-0-2-2--2-2-2-2-------2-2-2-2-|-
-|-2--2-2-2-2-3-0--0-0-0-0-0-3--3-3-3-3-3-3-3-3-3-3-3-|-
-|-3--3-3-3-3-3-2--2-2-2-2---3--3-3-3-3-3-3-3-3-3-3-3-|-
-|-3--3-3-3-3---3--3-3-3-3---1--1-1-1-1-1-1-1-1-1-1-1-|-
   "Well, tell me..."                                                         

-|-0--0-1-3--3-1-3-------------------|-
-|-1--1-1-3--3-1-3--/9-7-5-3-1-2h3p2-|-
-|-0--0-2-0--0-2-0-------------------|-
-|-2--2-3-0--0-3-0-------------------|-
-|-3--3-3-2--2-3-2-------------------|-
-|-3--3-1-3--3-1-3-------------------|-
                                                                              

-|-0--0-1-3--3-1-3--3-1-3--3-1-|-
-|-1--1-1-3--3-1-3--3-1-3--3-1-|-
-|-0--0-2-0--0-2-0--0-2-0--0-2-|-
-|-2--2-3-0--0-3-0--0-3-0--0-3-|-
-|-3--3-3-2--2-3-2--2-3-2--2-3-|-
-|-3--3-1-3--3-1-3--3-1-3--3-1-|-
   "Now that she's back"                                                      

-|-0--0-1-3--3-1-3--3-1-3--3-1-|-
-|-1--1-1-3--3-1-3--3-1-3--3-1-|-
-|-0--0-2-0--0-2-0--0-2-0--0-2-|-
-|-2--2-3-0--0-3-0--0-3-0--0-3-|-
-|-3--3-3-2--2-3-2--2-3-2--2-3-|-
-|-3--3-1-3--3-1-3--3-1-3--3-1-|-
   "She checks out Mozart while she..."                                       

-|-0--0-1-3--3-1-|-
-|-1--1-1-3--3-1-|-
-|-0--0-2-0--0-2-|-
-|-2--2-3-0--0-3-|-
-|-3--3-3-2--2-3-|-
-|-3--3-1-3--3-1-|-
   "Now that she's back in the..."                                            

-|-3-3-x-x-x-3-3-------------|-
-|-3-3-x-x-x-3-3---3-5-7-9b--|-
-|-0-0-x-x-x-0-0-------------|-
-|-0-0-x-x-x-0-0-------------|-
-|-2-2-x-x-x-2-2-------------|-
-|-3-3-x-x-x-3-3-------------|-
   "Plain 'Ol Jane..."                                                        

-|-0--0-0-0-0-3-3--3-3-3-3-2-1--1-1-1-1-------1-1-1-1-|-
-|-1--1-1-1-1-3-3--3-3-3-3-3-1--1-1-1-1-------1-1-1-1-|-
-|-0--0-0-0-0-3-0--0-0-0-0-2-2--2-2-2-2-------2-2-2-2-|-
-|-2--2-2-2-2-3-0--0-0-0-0-0-3--3-3-3-3-3-3-3-3-3-3-3-|-
-|-3--3-3-3-3-3-2--2-2-2-2---3--3-3-3-3-3-3-3-3-3-3-3-|-
-|-3--3-3-3-3---3--3-3-3-3---1--1-1-1-1-1-1-1-1-1-1-1-|-
   "Well, tell me..."                                                         

-|-0--0-0-0-0-3-3--3-3-3-3-2-1--1-1-1-1-------1-1-1-1-|-
-|-1--1-1-1-1-3-3--3-3-3-3-3-1--1-1-1-1-------1-1-1-1-|-
-|-0--0-0-0-0-3-0--0-0-0-0-2-2--2-2-2-2-------2-2-2-2-|-
-|-2--2-2-2-2-3-0--0-0-0-0-0-3--3-3-3-3-3-3-3-3-3-3-3-|-
-|-3--3-3-3-3-3-2--2-2-2-2---3--3-3-3-3-3-3-3-3-3-3-3-|-
-|-3--3-3-3-3---3--3-3-3-3---1--1-1-1-1-1-1-1-1-1-1-1-|-
   "Well, tell me..."                                                         

-|----------------------------------4b-----------4b-|-
-|-3-5-3-5-3--3-5-3-5-3-2h3-5-3-2-3----x-5-3-2-3----|-
-|-0-0-0-0-0--0-0-0-0-0----------------x------------|-
-|--------------------------------------------------|-
-|--------------------------------------------------|-
-|--------------------------------------------------|-
                                                                              

-|-3--3---3--3----2-|-
-|-3--3---3--3---3--|-
-|-0--0---0--0--2---|-
-|-0--0---0--0-0----|-
-|-2--2---2--2------|-
-|-3--3---3--3------|-
   "Can  you imagine..."                                                      

-|-3--3---3--3-|-
-|-3--3---3--3-|-
-|-0--0---0--0-|-
-|-0--0---0--0-|-
-|-2--2---2--2-|-
-|-3--3---3--3-|-
   "Can you imagine..."                                                       

-|-3-5-7-09-10-|-
-|-3-5-7-09-10-|-
-|-4-6-8-10-11-|-
-|-5-7-9-11-12-|-
-|-5-7-9-11-12-|-
-|-3-5-7-09-10-|-
   "The best..."                                                              

-|-0--0-0-0-0-3-3--3-3-3-3-2-1--1-1-1-1-------1-1-1-1-|-
-|-1--1-1-1-1-3-3--3-3-3-3-3-1--1-1-1-1-------1-1-1-1-|-
-|-0--0-0-0-0-3-0--0-0-0-0-2-2--2-2-2-2-------2-2-2-2-|-
-|-2--2-2-2-2-3-0--0-0-0-0-0-3--3-3-3-3-3-3-3-3-3-3-3-|-
-|-3--3-3-3-3-3-2--2-2-2-2---3--3-3-3-3-3-3-3-3-3-3-3-|-
-|-3--3-3-3-3---3--3-3-3-3---1--1-1-1-1-1-1-1-1-1-1-1-|-
   "Well, tell me..."                                                         

-|-0--0-0-0-0-3-3--3-3-3-3-2-1--1-1-1-1-------1-1-1-1-|-
-|-1--1-1-1-1-3-3--3-3-3-3-3-1--1-1-1-1-------1-1-1-1-|-
-|-0--0-0-0-0-3-0--0-0-0-0-2-2--2-2-2-2-------2-2-2-2-|-
-|-2--2-2-2-2-3-0--0-0-0-0-0-3--3-3-3-3-3-3-3-3-3-3-3-|-
-|-3--3-3-3-3-3-2--2-2-2-2---3--3-3-3-3-3-3-3-3-3-3-3-|-
-|-3--3-3-3-3---3--3-3-3-3---1--1-1-1-1-1-1-1-1-1-1-1-|-
   "Well, tell me..."                                                         

-|-0--0-0-0-0-3-3--3-3-3-3-2-1--1-1-1-1-------1-1-1-1-|-
-|-1--1-1-1-1-3-3--3-3-3-3-3-1--1-1-1-1-------1-1-1-1-|-
-|-0--0-0-0-0-3-0--0-0-0-0-2-2--2-2-2-2-------2-2-2-2-|-
-|-2--2-2-2-2-3-0--0-0-0-0-0-3--3-3-3-3-3-3-3-3-3-3-3-|-
-|-3--3-3-3-3-3-2--2-2-2-2---3--3-3-3-3-3-3-3-3-3-3-3-|-
-|-3--3-3-3-3---3--3-3-3-3---1--1-1-1-1-1-1-1-1-1-1-1-|-
   "And, tell me..."                                                          

-|-0-0-0-0-0-0-3-3-3-3-3-3----------4b-----------4b-|-
-|-1-1-1-1-1-1-3-3-3-3-3-3--5-3-2-3----x-5-3-2-3----|-
-|-0-0-0-0-0-0-0-0-0-0-0-0-------------x------------|-
-|-2-2-2-2-2-2-0-0-0-0-0-0--------------------------|-
-|-3-3-3-3-3-3-2-2-2-2-2-2--------------------------|-
-|-3-3-3-3-3-3-3-3-3-3-3-3--------------------------|-
  "nah, nah, nah, nah"     "and did you finally..."                           

-|-0-0-0-0-0-0-3-3-3-3-3-3----------4b-----------4b-|-
-|-1-1-1-1-1-1-3-3-3-3-3-3--5-3-2-3----x-5-3-2-3----|-
-|-0-0-0-0-0-0-0-0-0-0-0-0-------------x------------|-
-|-2-2-2-2-2-2-0-0-0-0-0-0--------------------------|-
-|-3-3-3-3-3-3-2-2-2-2-2-2--------------------------|-
-|-3-3-3-3-3-3-3-3-3-3-3-3--------------------------|-
   "nah, nah, nah..."      "And did you fall from..."                         

-|-0-0-0-0-0-0-3-3-3-3-3-3-|-
-|-1-1-1-1-1-1-3-3-3-3-3-3-|-
-|-0-0-0-0-0-0-0-0-0-0-0-0-|-
-|-2-2-2-2-2-2-0-0-0-0-0-0-|-
-|-3-3-3-3-3-3-2-2-2-2-2-2-|-
-|-3-3-3-3-3-3-3-3-3-3-3-3-|-
   "...nah, nah, nah..."                                                      

-|-0-----0-----0-----0------0------------|-
-|-3h4p3-5h6p5-7h8p7-9h10p9-10h11p10-12b-|-
-|---------------------------------------|-
-|---------------------------------------|-
-|---------------------------------------|-
-|---------------------------------------|-
            

comments powered by Disqus
↑ Back to top | Train Tabs for Drops Of Jupiter. Lyrics for acoustic guitar and electric guitar. Tablatures and chords are parodies/interpretations of the original songs. You may use it for private study, scholarship, research or language learning purposes only