» » »

Trail Of Dead, Mistakes And Regrets Tabs (ver.1)

Artists:  A B C D E F G H I J K L M N O P Q R S T U V W X Y Z # 

Mistakes And Regrets Tabs (ver.1)

Trail Of Dead Tabs
Rating:
0/5 (0 votes)
Mistakes And Regrets lessons Tabs too difficult? Try these video lessons and learn fast
                As obvious as it is, I failed to notice that there are two guitars in this song...
Here is what I have tabbed out for both guitars

guitar 1
--------3----------------5----------------2----------4---0-------0--
----1-------1---1----3-------3---3----0-------0---0----------2------
--3---3---3---3----5---5---5---5----2---2---2---2------0---0---0----

----------2---------4---------2---4---4---------2---------4---0-------0--
----0---0-----0---0-----0---0-------------0---0-----0---0---------2------
--2---2-----2---2-----2---2-----2---2---2---2-----2---2-----0---0---0----

guitar 2 - if i put the timing down for these riffs it would be longer than
the great wall of china
---------15--------------17--------------14--------16--12------12--
-----13------13--13--15------15--15--12------12--12--------14------
--15---15--15--15--17--17--17--17--14--14--14--14----14--14--14----

----------14--------16--------14----16----16--------14--------16--12------12--
----12--12----12--12----12--12----12----12----12--12----12--12--------14------
--14--14----14--14----14--14----14----14----14--14----14--14----14--14--14----

I'm working on the rest for both guitars.</
            
Submit corrections

comments powered by Disqus
↑ Back to top | Trail Of Dead Tabs for Mistakes And Regrets. Lyrics for acoustic guitar and electric guitar. Tablatures and chords are parodies/interpretations of the original songs. You may use it for private study, scholarship, research or language learning purposes only