» » »

Trail Of Dead, Homage Tabs (ver.1)

Artists:  A B C D E F G H I J K L M N O P Q R S T U V W X Y Z # 

Homage Tabs (ver.1)

Trail Of Dead Tabs
 Rating:
4/5 (4 votes)
Homage lessons Tabs too difficult? Try these video lessons and learn fast
                Homage - …And You Will Know Us By The Trail of Dead
Drop D Tuning

Riff A:
e--------------------------------
B--------------------------------
G--------------------------------
D--777777-333333-999999999999---- 
A--777777-333333-999999999999----
D--777777-333333-999999999999----

Riff B:
e------------------------------------
B-----------------------3---8b-------
G-----------7--------4---------------
D--0--5--7--------4------------------ 
A------------------------------------
D------------------------------------
 
Riff C:
e----------------------
B----------------------
G----------------------
D--9999999999999999----
A--9999999999999999---- 
D--9999999999999999----

Riff D:
e------------------------
B------------------------
G------------------------
D------------------------
A------------------------
D--3----2----5----4------

Riff E:
e------------------------
B------------------------
G--12---11---10---9------
D--12---11---10---9------
A--10---9----8----7------
D—-----------------------

Riff F:
e--------------------------------------
B--------------------------------------
G--12121212--11111111--10101010--9999--
D--12121212--11111111--10101010--9999--
A--10101010--9-9-9-9---8-8-8-8---7777--
D—-------------------------------------

Song Structure:
Riff A x4
Riff B x4
Riff C x1
Riff A x4
Riff B x4
Riff C x4
Riff A x2 (w/ solo but don’t know it)
Riff D x2
Riff E x1
Riff F x1
Riff C x2
Riff A x8
            
Submit corrections

comments powered by Disqus
↑ Back to top | Trail Of Dead Tabs for Homage. Lyrics for acoustic guitar and electric guitar. Tablatures and chords are parodies/interpretations of the original songs. You may use it for private study, scholarship, research or language learning purposes only