» » »

Trail Of Dead, Fake Fake Eyes Tabs (ver.1)

Artists:  A B C D E F G H I J K L M N O P Q R S T U V W X Y Z # 

Fake Fake Eyes Tabs (ver.1)

Trail Of Dead Tabs
Rating:
0/5 (0 votes)
Fake Fake Eyes lessons Tabs too difficult? Try these video lessons and learn fast
                This is another great Trail Of Dead song

-----------------------------|-----------|-------------------|---------|-----
-----------------------------|-----------|-------------------|---------|-----
-14-14-14-14-14-14-14-14-14--|-----------|-14-14-14-14-14-14-|---------|-----
-14-14-14-14-14-14-14-14-14--|99999999999|-14-14-14-14-14-14-|999999999|-----
-12-12-12-12-12-12-12-12-12--|99999999999|-12-12-12-12-12-12-|999999999|-----
-----------------------------|77777777777|-------------------|777777777|-----
 ^Intro                          ^Tremelo                        ^Tremelo     

-----------------|---------------------|------------------------------------|-
-----------------|---------------------|------------------------------------|-
-----------------|-14---11---7--7--7--7|--13-13-13-13--11-11-11-11----------|-
-2222222222222222|-14---11---7--7--7--7|--13-13-13-13--11-11-11-11---9999999|-
-2222222222222222|-12---9----5--5--5--5|--11-11-11-11--9--9--9--9----9999999|-
-0000000000000000|---------------------|-----------------------------7777777|-
 ^After intro before bridge       (Bridge)         Strum then trem 2nd time   

-13-13-13-13-13--11-11-11-11-11-----------------------------------------------
-13-13-13-13-13--11-11-11-11-11--99999999999----------------------------------
-11-11-11-11-11--9--9--9--9--9---99999999999----------------------------------
---------------------------------77777777777----------------------------------
 Heavier this time^
            
Submit corrections

comments powered by Disqus
↑ Back to top | Trail Of Dead Tabs for Fake Fake Eyes. Lyrics for acoustic guitar and electric guitar. Tablatures and chords are parodies/interpretations of the original songs. You may use it for private study, scholarship, research or language learning purposes only