» » »

Another Morning Stoner Tabs (ver.1)

Artists:  A B C D E F G H I J K L M N O P Q R S T U V W X Y Z # 

Another Morning Stoner Tabs (ver.1)

Trail Of Dead
Rating:
0/5 (0 votes)

Hard to play? Try these video lessons and learn fast.
                Tuning: Standard (EADGBE)

guitar 1
---0-0-0-0-0-0----------0--0-0--0--0--0------------
--3-5-3-5/7-5-8-7-5-0--8-10-8-10/12-10-13-12-10-0--
---------------------------------------------------
---------------------------------------------------
---------------------------------------------------
---------------------------------------------------

this is another part way in to the song.. it was easy to figure out so here it is
----------------------------------------------------
--5/7-5-----5/7-7-5---5--5/7-5-----5/7-7-5-8-7-5-0--
--------7-7---------7----------7-7------------------
----------------------------------------------------
----------------------------------------------------
----------------------------------------------------

I'm working on the rest for both guitars.
            
Hard to play? Try these video lessons and learn fast. | Correct




comments powered by Disqus
↑ Back to top | Tablatures and chords are parodies/interpretations of the original songs. You may use it for private study, scholarship, research or language learning purposes only