» » »

Scared Tabs (ver.1)

Artists:  A B C D E F G H I J K L M N O P Q R S T U V W X Y Z # 

Scared Tabs (ver.1)

Tragically Hip
Rating:
0/5 (0 votes)

Hard to play? Try these video lessons and learn fast.
                        by the Tragically Hip
       (arranged by Jeff Kerr)

(intro: fig.1 x2)

(repeat fig. 1)
I could make you scared if you want me to. 
I'm not prepared, but if I have to
He said, I can make you scared, it's kinda what I do. 
If you're prepared,  here's what I propose to do.  
You're in Russia, and more than a million works of art 
are whicked out to the woods
So when Nazis find the whole place dark
They'd think god's left the museum for good

I make you scared, if that's what I do 
If you're prepared, if I have to
If I make you scared and you pay me to 
If that's the deal now here's what I can do for you

A                    G  A            A   
Now there's a focus group that can prove 
         G               A               (back to fig. 1)
this is all nothing but cold calculation

Tests have shown that suspicious or hostile 
Their lives need not be shortened
truth be told they can live a long, long while
Tickled to death by their importance

If you make me scared, if that's what you do
If I'm unclear can I get out of this thing with me and you
If you feel scared, a bit confused, I gotta say
this sounds a little beyond anything I'm used to

A                       G A          A                     
Now there's a precious few that can prove that at the root
         G             A                  (back to fig. 1)
This is all nothing but a cold calculation

Clearly entranced, you're leaning back now
Defanged destroyer limps into the bay
Down at the beach it's attracting quite a crowd
As kids wade through blood out to it to play

OK you made me scared, you did what you set out to do
I'm not prepared, really had me going there for a minute or two
He said, you made me scared too, I wasn't sure I was getting through
I gotta go, it's been a pleasure doing business with you.

*********************************************************
fig. 1
|-------2--2--2-----2--2-----------3--3--------2--2-------|
|-------3--3--3-----3--3-----------3--3--------3--3-------|
|-------2--2--2-----2--2-----------0--0--------2--2-------|
|---0------------------------------0--0----0--------------|
|----------------4--------4--0-------------------------0--|
|-------------------------------3-------------------------|

fig. 2
|------2--2-2--2-2--2-2------------3--3-------3-3-3-3-----|
|------3--3-3--3-3--3-3------------3--3-------3-3-3-3-----|
|------2--2-2-------0-0------------0--0-------0-0-0-0-----|
|---0-----4-4--2-2--0-0------------0--0-------0-0-0-0-----|
|-------------------------2--0------------0------------0--|
|-------------------------------3-------------------------|

fig. 3
|-------2--2--2-----2--2-----------3--3-------3-3-3-3-----|
|-------3--3--3-----3--3-----------3--3-------3-3-3-3-----|
|-------2--2--2-----2--2-----------0--0-------0-0-0-0-----|
|---0------------------------------0--0-------0-0-0-0-----|
|----------------4--------4--0-------------0-----------0--|
|-------------------------------3-------------------------|

fig. 4
|-------2--2--2-----2--2-----------3--3-------------------|
|-------3--3--3-----3--3-----------3--3-------------------|
|-------2--2--2-----2--2-----------0--0-------------------|
|---0------------------------------0--0-------------------|
|----------------4--------2--0-------------------------0--|
|-------------------------------3--------3----------------|



I play this song starting with the first figure, then switch between all
four as fits the song.  These are pretty close to the way I play them, 
but they're more like a general idea.  Play around with them with the 
song to find the style of the song.  Later!
            
Hard to play? Try these video lessons and learn fast. | Correct




comments powered by Disqus
↑ Back to top | Tablatures and chords are parodies/interpretations of the original songs. You may use it for private study, scholarship, research or language learning purposes only