» » »

Every Time You Go Tabs (ver.1)

Artists:  A B C D E F G H I J K L M N O P Q R S T U V W X Y Z # 

Every Time You Go Tabs (ver.1)

Tragically Hip
Rating:
0/5 (0 votes)

Hard to play? Try these video lessons and learn fast.
                #------------------------------------------------------------------------------##

Everytime You Go - The Tragically Hip


RIFF A                              RIFF B
e---------------------------------  e------0------0------0------0----|
B---------3------3------3------3--  B--------3------3------3------3--|
G-------0------0------0------0----  G--------------------------------|
D---------------------------------  D--------------------------------|
A---2-2----0-0----3-3----0-0------  A---2-2-----0------3------0------|
E---------------------------------  E--------------------------------|

PART A
e------------------------------------------------------------------------|
B------------------------------------------------------------------------|
G------------------------------------------------------------------------|
D--4--4-4--4--4-4--5--5-5--7--7------------------------------------------|
A--2--2-2--0--0-0--5--5-5--5--0------------------------------------------|
E------------------3--3-3------------------------------------------------|

PART B
e-------------------------------------------------------------------------|
B-------------------------------------------------------------------------|
G--------------------------------------------------------7--7-7-7-7-------|
D--4-4-4--x-x-x-x--9~---7-7-7--x-x-x-x--7~---5--5-5-5-5--7--7-7-7-7-------|
A--2-0-2--x-x-x-x--9~---5-0-5--x-x-x-x--7~---5--5-5-5-5--5--5-5-5-5-------|
E---------x-x-x-x--7~----------x-x-x-x--5~---3--3-3-3-3-------------------|

PART C
e-------------------------------------------------------------------------|
B-------------------------------------------------------------------------|
G--7-7-7-7-7-7-7-7-----------------9-9-9-9-9-9-9-9------------------------|
D--7-7-7-7-7-7-7-7-7-7-7-7-7-7-7-7-9-9-9-9-9-9-9-9-9-9-9-9-9-9-9-9--------|
A--5-5-5-5-5-5-5-5-7-7-7-7-7-7-7-7-7-7-7-7-7-7-7-7-9-9-9-9-9-9-9-9--------|
E------------------5-5-5-5-5-5-5-5-----------------7-7-7-7-7-7-7-7--------|

e-------------------------------------------------------------------------|
B-------------------------------------------------------------------------|
G--12-12-12-12-12-12-12-12------------------------------------------------|
D--12-12-12-12-12-12-12-12-12-12-12-12-12-12-12-12------------------------|
A--10-10-10-10-10-10-10-10-12-12-12-12-12-12-12-12------------------------|
E--------------------------10-10-10-10-10-10-10-10------------------------|

PART D (play twice)                  (play third time)
e-----------------------------------|-------------------------------------|
B-----------------------------------|-------------------------------------|
G---7--7-7--7-7--4--4-4-4-4-4-4-4---|--7-7-7-7-7-7-7-7--------------------|
D---7--7-7--7-7--4--4-4-4-4-4-4-4---|--7-7-7-7-7-7-7-7-7-7-7-7-7-7-7-7----|
A---5--5-5--0-0--2--2-2-2-2-2-2-2---|--5-5-5-5-5-5-5-5-7-7-7-7-7-7-7-7----|
E-----------------------------------|------------------5-5-5-5-5-5-5-5----|

PART E (play three times)            (play fourth time)
e---2--2-2-2-2--5--5-5-5-5-5-5------|-------------------------------------|
B---4--4-4-4-4--7--7-7-7-7-7-7------|-------------------------------------|
G---4--4-4-4-4--7--7-7-7-7-7-7------|--9-9-9-9-9-9-9-9--------------------|
D---4--4-4-4-4--7--7-7-7-7-7-7------|--9-9-9-9-9-9-9-9-9-9-9-9-9-9-9-9----|
A---2--2-2-2-2--5--5-5-5-5-5-5------|--7-7-7-7-7-7-7-7-9-9-9-9-9-9-9-9----|
E-----------------------------------|------------------7-7-7-7-7-7-7-7----|

How it all fits together:
=========================

INTRO:
   Guitar 2: RIFF A x 4
             RIFF B x 2

PART B
   Like anyone I knew a Dave
   drove a plymouth shallow grave
   said "my girl don't just walk, she unfurls"
PART A
PART B
   with motorcycle language
   He stumbled through his slang pledge
   then he dragged the mud for wedding pearls

PART A
PART C
   He closed both his eye and sort of gave her a kiss
   Said "Don't worry baby about what you're gonna miss"
   There will always be a much much much more than this

PART D
   everytime you go, you are all i see
   holding out for you and me

PART A
PART B
   Pulled down his birthday suitcase
   brown with dust from no place
   said "I think it's time we made a start"

PART A
PART B
   they danced the waltz of charity
   no car garage, two kids for free
   they were p**sing bliss and playing parts

PART A
PART C
   She closed both her eyes, sorta gave him a kiss
   said "Don't worry baby what you're gonna miss
   There'll always be a much much more than this"

PART D
   everytime you go, you are all I see
   holding out for you and me

PART E
   And the big snake pit
   and we dance to the edge of it
   and we laugh and we laugh cause
   we ain't seen the half of it

SOLO over PART A

PART D
   Everytime you go, you are all i see
   holding out for you and me

Duncan
            
Hard to play? Try these video lessons and learn fast. | Correct




comments powered by Disqus
↑ Back to top | Tablatures and chords are parodies/interpretations of the original songs. You may use it for private study, scholarship, research or language learning purposes only