» » »

Traditional Irish, Road To Lisdoonvarna Tabs (ver.1)

Artists:  A B C D E F G H I J K L M N O P Q R S T U V W X Y Z # 

Road To Lisdoonvarna Tabs (ver.1)

Traditional Irish Tabs
 Rating:
4/5 (4 votes)
Road To Lisdoonvarna lessons Tabs too difficult? Try these video lessons and learn fast
1
                Road To Lisdoonvarna 
traditional irish
                              

6/8 or 3/4 timing, accentuate the 1. and 4. eighth

Solo
                      Segno                                                 
     H        E  E     Q    E  Q    E     Q    E  Q    E     Q    E  E  E  E   
E||-----------------|------------------|------------------|-------------------|
B||-----------------|------------------|-------0--1-------|-------------------|
G||-----------------|-------2--2----0--|--2---------------|-------0--0--2--0--|
D||-----------------|--0---------------|------------------|--2----------------|
A||--------------3--|------------------|------------------|-------------------|
E||-----------------|------------------|------------------|-------------------|


  Q    E  E  E  E     Q    E  Q    E     Q    E  Q    E     E  E  E  Q    E   
-------------------|------------------|------------------|-------------------|
-------------------|------------------|-------0--1-------|--0--1--0----------|
-------------------|-------2--2----0--|--2---------------|-----------2----0--|
-------0--2--0-----|--0---------------|------------------|-------------------|
--3-------------3--|------------------|------------------|-------------------|
-------------------|------------------|------------------|-------------------|


  Q    E  Q    E     Q    E  Q    E     Q    E  Q    S S    Q    E  E  E  E   
------------------|------------------|-------------------|-------------------|
------------------|------------------|-------0--1--------|-------------------|
--2---------------|-------2--2----0--|--2----------------|-------0--0--2--0--|
-------0--0-------|--0---------------|-------------------|--2----------------|
---------------3--|------------------|-------------------|-------------------|
------------------|------------------|-------------------|-------------------|


  Q    E  E  E  E     Q    E  Q    E     Q    E  Q    E     E  E  E  Q    E   
-------------------|------------------|------------------|-------------------|
-------------------|------------------|-------0--1-------|--0--1--0----------|
-------------------|-------2--2----0--|--2---------------|-----------2----0--|
-------0--2--0-----|--0---------------|------------------|-------------------|
--3-------------3--|------------------|------------------|-------------------|
-------------------|------------------|------------------|-------------------|


  Q    E  Q    E       Q    E  E  E  E     Q    E  E  E  E   
------------------||--------0--1--0-----|-------------------|
------------------||---3-------------3--|--1----------0--1--|
--2---------------||*-------------------|-------2--2--------|
-------0--0-------||*-------------------|-------------------|
------------------||--------------------|-------------------|
------------------||--------------------|-------------------|


  Q    E  E  E  E     Q    E  Q    E     Q    E  E  E  E     Q    E  E  E  E   
-------------------|------------------|-------0--1--0-----|-------------------|
--0-------------0--|--1---------------|--3-------------3--|--1----------0--1--|
-------0--0--2-----|-------2--2-------|-------------------|-------2--2--------|
-------------------|------------------|-------------------|-------------------|
-------------------|------------------|-------------------|-------------------|
-------------------|------------------|-------------------|-------------------|


  E  E  E  Q    E     Q    E  Q    E     Da Segno   
-------------------|-------------------||
--0--1--0----------|-------------------||
-----------2----0--|--2---------------*||
-------------------|-------0--0-------*||
-------------------|-------------------||
-------------------|-------------------||




Duration Legend
---------------
Q - quarter
E - 8th
            
Submit corrections

comments powered by Disqus
↑ Back to top | Traditional Irish Tabs for Road To Lisdoonvarna. Lyrics for acoustic guitar and electric guitar. 1 Tablatures and chords are parodies/interpretations of the original songs. You may use it for private study, scholarship, research or language learning purposes only