» » »

T-pain, I'm In Love With A Stripper Tabs (ver.3)

Artists:  A B C D E F G H I J K L M N O P Q R S T U V W X Y Z # 

I'm In Love With A Stripper Tabs (ver.3)

T-pain Tabs
Rating:
4/5 (7 votes)
Hard to play? Try these video lessons and learn fast.
                Part 1
e|--------------------------------------------------------------------------|
B|--------------------------------------------------------------------------|
G|--------------------------------------------------------------------------|
D|-------6/8-----------------------6/8--------------------------------------|
A|--4/6--------8/10-----------3/5-------8/10--------------------------------|
E|------------------8/10----------------------------------------------------|

Part 2
e|-----6--10--8--6--10--8--6--10--8--6---------6--10--8--6--10--8--(6)------|
B|--8---------------------------------------8-------------------------------|
G|--------------------------------------------------------------------------|
D|--------------------------------------------------------------------------|
A|--------------------------------------------------------------------------|
E|--------------------------------------------------------------------------|
            

comments powered by Disqus
↑ Back to top | T-pain Tabs for I'm In Love With A Stripper. Lyrics for acoustic guitar and electric guitar. Tablatures and chords are parodies/interpretations of the original songs. You may use it for private study, scholarship, research or language learning purposes only