» » »

Toxic Holocaust, 666 Tabs (ver.1)

Artists:  A B C D E F G H I J K L M N O P Q R S T U V W X Y Z # 

666 Tabs (ver.1)

Toxic Holocaust Tabs
Rating:
4/5 (1 vote)
666 lessons Tabs too difficult? Try these video lessons and learn fast
                Toxic holocaust 666

Main Riffage  X12
E|---------------------------------|---------------------------------|
B|---------------------------------|---------------------------------|
G|---------------------------------|---------------------------------|
D|---------------------------------|---------------------------------|
A|-7---7---7---7---8---7---7---7---|-5---7---7---7---7---7---7---7---|
E|-5---5---5---5---6---5---5---5---|-3---5---5---5---5---5---5---5---|

Chorus X2
E|-------------------------------|-------------------------------|-------------------------------|
B|-------------------------------|-------------------------------|-------------------------------|
G|-------------------------------|-------------------------------|-------------------------------|
D|-2---2---2---2---8----7----5---|-2---2---2---2-----------------|-2---2---2---2---8----7----5---|
A|-0---0---0---0---6----5----3---|-0---0---0---0---3----5----3---|-0---0---0---0---6----5----3---|
E|-------------------------------|-----------------1----3----1---|-------------------------------|

E|---------------------------------|
B|---------------------------------|
G|---------------------------------|
D|-2---2---2---2---2---------------|
A|-0---0---0---0---0---------------|
E|---------------------------------|

Main riffage X10
Chorus X2

SOLO BACKING
Main riffage X4
Chorus X2

Chorus X4
            
Submit corrections

comments powered by Disqus
↑ Back to top | Toxic Holocaust Tabs for 666. Lyrics for acoustic guitar and electric guitar. Tablatures and chords are parodies/interpretations of the original songs. You may use it for private study, scholarship, research or language learning purposes only