» » »

In Christ Alone Bass tabs (ver.1)

Artists:  A B C D E F G H I J K L M N O P Q R S T U V W X Y Z # 

In Christ Alone Bass tabs (ver.1)

Townend Stuart
Rating:
0/5 (0 votes)

Hard to play? Try these video lessons and learn fast.
                G--------------------------------------------------------------------------5-|
D-----------------5-------5------------------------5-------5-----------5-8---|
A-----6-6-----6-8---8-6-----8-6-6------6-6-----6-8---8-6-----8-6-6---6-------|
E-6-8-----6-8-----------8----------6-8-----6-8-----------8-------------------|


G5-------------5-5-----------------------------------------------------------|
D--8-5-----5-8-----8-5-------------------5-------5---------------------------|
A------8-6-------------8-----6-6-----6-8---8-6-----8-6-6---------------------|
E------------------------6-8-----6-8-----------8-----------------------------|

I have basically followed the vocal notes which seems to work pretty well.
 This is simply repeated depending how many verses you are playing (there is
 no chorus in this song). I haven't done any form of bridge segment but just
 play around on the same chord shape that this song is based on or leave it
to the rest of the band to fill the gap! I think its in the right key for the
 recording I have but you can simply move the whole structure up or down the
 fret board as necessary!

This is my first bit of tabbing so sorry for any mistakes.
God Bless and happy playing!
            
Hard to play? Try these video lessons and learn fast. | Correct




comments powered by Disqus
↑ Back to top | Tablatures and chords are parodies/interpretations of the original songs. You may use it for private study, scholarship, research or language learning purposes only