» » »

Toto, I Will Remember Bass tabs (ver.1)

Artists:  A B C D E F G H I J K L M N O P Q R S T U V W X Y Z # 

I Will Remember Bass tabs (ver.1)

Toto Tabs
 Rating:
4/5 (4 votes)
I Will Remember lessons Tabs too difficult? Try these video lessons and learn fast
1
                0:10 intro
G|-------------------------------------------------------------------------------|
D|-------------------------------------------------------------------------------|
A|---------------------6~------8~--------------------------6------6-8~----8------|
E|----3~-------3~--------------------8~-----3~------3~----------------------8~---|

  0:30 verse
G|-------------------------------------------------------------------------------------|
D|----------------------------------------------5------------------------5-------------|
A|---------6---8~---------8~-------------6----6-------8-----------6----6-----8---------|
E|---3~-------------6--8--------8/3~-----------------------8/3-------------------8/3---|
                                1:04         1:13
G|------------------------------|-----------|---------------------------------------|
D|------------------------------|-----------|---------------------------------------|
A|---------6----------5--6--8---|---intro---|--------6---8--------------8~----------|
E|---3--5-------6--8------------|-----------|---3~--------------6---8--------8/3----|

G|------------------------------------------------------------------------------|
D|------------------------------------------------------------------------------|
A|---6----8-----------6----8----------6---------5--6--8-------------------------|
E|-------------8/3------------8/3--5------6--8-------------3~---5~---6~---8~----|

  1:52 Prechorus
G|--------------------------------------------------------------------------|
D|--------------5h7p5-----------------/5------------------7p5---------------|
A|----6---6---6-------8----8~---6---6-----5---5h6---6---6-----8/3----6~-----|
E|--------------------------------------------------------------------------|

G|-----------------------------|
D|-----------------------------|
A|----6-6-6----6-6-6----10\----|
E|-----------------------------|

  2:12 Chorus
G|---------------------------------------------------------------------------------|
D|---------------------------------------------------------------------------------|
A|---1---1-1-1------------------------------------\5---5--5-----------3--5--5--3---|
E|---------------1---1-1-1---0h1h3---3----3-3-3---------------6--6-6---------------|

G|--------------------------------------------------------------------------|
D|---------0---0---1---1---3---3/5------------------------------------------|
A|---1----------------------------------/5--5--5---------------3--5--5--3---|
E|-----------------------------------3~------------6----6--6----------------|

  2:45        3:05
G|---------|---------------------------------------------------------------------|
D|---------|---------------------5---------------------------------5-------------|
A|--intro--|---------8---6----6-----8---------8----------8---6---6-----8---------|
E|---------|----3~-----------------------6--8------8/3~--------------------8/3---|
                                                                  3:44
G|---------------------------------------------------------------|---------------|
D|--------------5------------------------------------------------|---------------|
A|---8---6----6----8-----------6-------6---8---------------------|---prechorus---|
E|----------------------8/3--------8-----------3~--5~--6~--8~----|---------------|

  4:03 Chorus
G|----------------------------------------------------------------------------------|
D|----------------------------------------------------------------------------------|
A|---1---1-1-1-----------------------------/5---5-5-----------3--5--5--3---3-3-3-1--|
E|---------------1---1-1-1---0h1h3---3-3-3-----------6--6--6------------------------|

G|-------------------------------------------------------------------------|
D|---0---0--1--1--3----3/5------5------------------------------------------|
A|---------------------------6------5--5-5----------3--5--5--3---3-3-3-1---|
E|------------------------------------------6--6-6-------------------------|

G|-----------------------------------------------------------------------------|
D|-----------------------------------------------------------------------------|
A|---1---1-1-0-----------------------------------5--5-5--------3--5--5--3------|
E|---------------1---1-1-1---0h1h3---3--3--5--6----------6--6--------------6---|

G|------------------------------------------------------------------|
D|------0---1--1---3---3/5------5-----------------------------------|
A|---1-----------------------6-----5--5--5-------------3--5--5--3---|
E|-------------------------------------------6---6-6----------------|
  5:05                    6:02
G|----------------------------|
D|----------------------------|
A|---intro-(ad libitum)-------|
E|----------------------------
            
Submit corrections

comments powered by Disqus
↑ Back to top | Toto Bass for I Will Remember. Lyrics for acoustic guitar and electric guitar. 1 Tablatures and chords are parodies/interpretations of the original songs. You may use it for private study, scholarship, research or language learning purposes only