» » »

Need To Be Strong Tabs (ver.1)

Artists:  A B C D E F G H I J K L M N O P Q R S T U V W X Y Z # 

Need To Be Strong Tabs (ver.1)

Toshio Masuda
Rating:
4/5 (2 votes)

Hard to play? Try these video lessons and learn fast.
                Need to be Strong
Toshiro Masuda

e||-----------------------|
b||-----------------------|
g||-----------------------|
d||-----------------------|
a||-7--2-8-7-6--7--2-8-7-6|
E||-5--0-6-5-4--5--0-6-5-4|

(this part is actually played on the bass)
e|------------------------|
b|------------------------|
g|------------------------|
d|------------------------|
a|------------------------|
E|-0-2-3-0-5-0-0-2-3-0-5-0|

e|--------------------|
b|--------------------|
g|--------------------|
d|--------------------|
a|-2-4-5-2-5-6-2-6-7-2|
E|-0-2-3-0-3-4-0-4-5-0|

e|--------------------|
b|--------------------|
g|--------------------|
d|--------------------|
a|-2-4-5-2-5-6-2-6-7-2|
E|-0-2-3-0-3-4-0-4-5-0|

e|-----------------------------------|
b|-----------------------------------|
g|-----------------------------------|
d|-----------------------------------|
a|-9-222-9-8-222-8-7-222-77-88-99-10-|
E|-7-000-7-6-000-6-5-000-55-66-77-8--|

e|---------------------------------|
b|---------------------------------|
g|---------------------------------|
d|---------------------------------|
a|-222-9-8-222-8-7-222-77-88-99-10-|
E|-000-7-6-000-6-5-000-55-66-77-8--|

(it’s 10-2, not 1-0-2)
e|----------|
b|----------|
g|----------|
d|----------|
a|-7-8-9-102|
e|-5-6-7-8-0|

e|--------------------|
b|--------------------|
g|--------------------|
d|--------------------|
a|-2-4-5-2-5-6-2-6-7-2|
E|-0-2-3-0-3-4-0-4-5-0|

e|--------------------|
b|--------------------|
g|--------------------|
d|--------------------|
a|-2-4-5-2-5-6-2-6-7-2|
E|-0-2-3-0-3-4-0-4-5-0|

e|--------------------|
b|--------------------|
g|--------------------|
d|--------------------|
a|-2-4-5-2-5-6-2-6-7-2|
E|-0-2-3-0-3-4-0-4-5-0|

e|--------------------|
b|--------------------|
g|--------------------|
d|--------------------|
a|-2-4-5-2-5-6-2-6-7-2|
E|-0-2-3-0-3-4-0-4-5-0|

e|------------------|
b|------------------|
g|------------------|
d|------------------|
a|-8-2-8-2-85-222222|
E|-6-0-6-0-63-000000|

e|------------------|
b|------------------|
g|------------------|
d|------------------|
a|-8-2-8-2-85-222222|
E|-6-0-6-0-63-000000|

e|------------------|
b|------------------|
g|------------------|
d|------------------|
a|-8-2-8-2-85-222222|
E|-6-0-6-0-63-000000|

e|------------------|
b|------------------|
g|------------------|
d|------------------|
a|-8-2-8-2-85-222222|
E|-6-0-6-0-63-000000|

e|-------------------|
b|-------------------|
g|-------------------|
d|-------------------|
a|-2-5-2-5-2-4-222222|
E|-0-3-0-3-0-2-000000|

e|-------------------|
b|-------------------|
g|-------------------|
d|-------------------|
a|-2-5-2-5-2-4-222222|
E|-0-3-0-3-0-2-000000|

e|-------------------|
b|-------------------|
g|-------------------|
d|-------------------|
a|-2-5-2-5-2-4-222222|
E|-0-3-0-3-0-2-000000|

e|-------------------|
b|-------------------|
g|-------------------|
d|-------------------|
a|-2-5-2-5-2-4-222222|
E|-0-3-0-3-0-2-000000|

e|-----------------------------------|
b|-----------------------------------|
g|-----------------------------------|
d|-----------------------------------|
a|-9-222-9-8-222-8-7-222-77-88-99-10-|
E|-7-000-7-6-000-6-5-000-55-66-77-8--|

e|---------------------------------|
b|---------------------------------|
g|---------------------------------|
d|---------------------------------|
a|-222-9-8-222-8-7-222-77-88-99-10-|
E|-000-7-6-000-6-5-000-55-66-77-8--|

e|----------|
b|----------|
g|----------|
d|----------|
a|-7-8-9-102|
e|-5-6-7-8-0|

e|--------------------|
b|--------------------|
g|--------------------|
d|--------------------|
a|-2-4-5-2-5-6-2-6-7-2|
E|-0-2-3-0-3-4-0-4-5-0|

e|--------------------|
b|--------------------|
g|--------------------|
d|--------------------|
a|-2-4-5-2-5-6-2-6-7-2|
E|-0-2-3-0-3-4-0-4-5-0|

e|------------------|
b|------------------|
g|------------------|
d|------------------|
a|-8-2-8-2-85-222222|
E|-6-0-6-0-63-000000|

e|------------------|
b|------------------|
g|------------------|
d|------------------|
a|-8-2-8-2-85-222222|
E|-6-0-6-0-63-000000|


e|------------------|
b|------------------|
g|------------------|
d|------------------|
a|-8-2-8-2-85-222222|
E|-6-0-6-0-63-000000|

e|------------------|
b|------------------|
g|------------------|
d|------------------|
a|-8-2-8-2-85-222222|
E|-6-0-6-0-63-000000|

e|-------------------|
b|-------------------|
g|-------------------|
d|-------------------|
a|-2-5-2-5-2-4-222222|
E|-0-3-0-3-0-2-000000|

e|-------------------|
b|-------------------|
g|-------------------|
d|-------------------|
a|-2-5-2-5-2-4-222222|
E|-0-3-0-3-0-2-000000|

e|-------------------|
b|-------------------|
g|-------------------|
d|-------------------|
a|-2-5-2-5-2-4-222222|
E|-0-3-0-3-0-2-000000|

e|-------------------|
b|-------------------|
g|-------------------|
d|-------------------|
a|-2-5-2-5-2-4-222222|
E|-0-3-0-3-0-2-000000|

e|-----------------------------------|
b|-----------------------------------|
g|-----------------------------------|
d|-----------------------------------|
a|-9-222-9-8-222-8-7-222-77-88-99-10-|
E|-7-000-7-6-000-6-5-000-55-66-77-8--|

e|---------------------------------|
b|---------------------------------|
g|---------------------------------|
d|---------------------------------|
a|-222-9-8-222-8-7-222-77-88-99-|
E|-000-7-6-000-6-5-000-55-66-77-|(let it fade out)

have fun w/ the non-guitar pro and non-power tab Need to be Strong
im pretty sure this is correct, but this it my first tab
            
Hard to play? Try these video lessons and learn fast. | Correct




comments powered by Disqus
↑ Back to top | Tablatures and chords are parodies/interpretations of the original songs. You may use it for private study, scholarship, research or language learning purposes only