» » »

Tose Proeski, Boze Brani Je Od Zla Tabs (ver.1)

Artists:  A B C D E F G H I J K L M N O P Q R S T U V W X Y Z # 

Boze Brani Je Od Zla Tabs (ver.1)

Tose Proeski Tabs
 Rating:
4/5 (4 votes)
Boze Brani Je Od Zla lessons Tabs too difficult? Try these video lessons and learn fast
                Hallo, my name is Vladimir, Im from Serbia.
Nice song...





            Tose Proeski - Boze brani je od zla



Intro (violines):

           Bm       F#m        G         D F#m ... again:
e|------------------------------------------|-------------------------------------------|
B|---3-2-------3-2-------3-2----------------|---3-2-----------2-----3-2-----------------|
G|-------2-4-------4-2-------2-4---2-4-2----|-------2-4---2-4---2-------2-4---2-4-2-----|
D|---------------------------------------4--|---------------------------------------4---|
A|------------------------------------------|-------------------------------------------|
E|------------------------------------------|-------------------------------------------|


        G  A           F#m         G
Ona ima oci koje znaju moje tajne sve
      G          A      Bm
moje tuge sve i moje nemire
         G  A           F#m        G
ona ima ruke i u njima svemir citavi
       G         A       Bm
u tom zagrljaju mogu umrijeti
       G        F#m       Bm
u tom zagrljaju mogu umrijeti.


Refren:

 G A   Bm
Boze, meni tako malo treba
F#m
ispod ovog svetog neba
G
topla postelja
  Em        F#m
i njena oka dva


 G  A  Bm
Salji andjele cuvare svoje
F#m
jer je dusa duse moje
  G
brani je od zla
      Em       F#m
Boze, kad ne mogu ja
  G    A         Bm
ouoo uhoo kad ne mogu ja
        G  F#m      Bm
Boze, brani je od zla


Intro

        G   A          F#m        G
Ona ima usne i na njima okus tresanja
      G            A          Bm
koje niko ne zna ljubit' kao ja
      G           F#m         Bm
koje niko ne zna ljubit' kao ja


Ref.


Solo & differet chords:

            C#m G#m          A  G#m         F#m G#m    A  B  (C)
e|-------------------------------------------------2----4-2---|
B|---5-4-2---2-2-----5-4-2---2-2-----5-4-2---2-5-4--4--5------|
G|---------4-----4---------4-----4---------4---------4--------|
D|------------------------------------------------------------|
A|------------------------------------------------------------|
E|------------------------------------------------------------|

            C#m G#m          A  G#m         F#m G#m    A  B
e|-------------------------------------------------2----4-2---|
B|---5-4-2---2-4-----5-4-2---2-4-----5-4-2---2-5-4--4--5------|
G|---------4-----4---------4-----4---------4---------4--------|
D|------------------------------------------------------------|
A|------------------------------------------------------------|
E|------------------------------------------------------------|


Refren


Boze...


Salji andjele cuvare svoje
jer je dusa duse moje
brani je od zla
Boze, kad ne mogu ja
ouoo uhoo kad ne mogu ja
        G  F#m      Em
Boze, brani je od zla
F#m
Boze, brani je od zla


Outro:

           Bm       F#m        G   A      Bm
e|---------------------------------------------|
B|---3-2-------3-2-------3-2-------3-2---------|
G|-------2-4-------4-2-------2-4-------4-2-4---|
D|---------------------------------------------|
A|---------------------------------------------|
E|---------------------------------------------|



Used chords:

        EADGBe
Bm------x24432
F#m-----244222
G-------320033
A-------x02220
Em------022000
D-------xx0232
C#m-----x46654
G#m-----466444
B-------x24442
C-------x35553
            
Submit corrections

comments powered by Disqus
↑ Back to top | Tose Proeski Tabs for Boze Brani Je Od Zla. Lyrics for acoustic guitar and electric guitar. Tablatures and chords are parodies/interpretations of the original songs. You may use it for private study, scholarship, research or language learning purposes only