» » »

Tori Amos, Josephine Tabs (ver.1)

Artists:  A B C D E F G H I J K L M N O P Q R S T U V W X Y Z # 

Josephine Tabs (ver.1)

Tori Amos Tabs
 Rating:
4/5 (4 votes)
Josephine lessons Tabs too difficult? Try these video lessons and learn fast
1
                I think these are pretty close.
Enjoy.


|--4------------------6---------2------------------|
|--6------------------7---------2------------------|
|--6------------------8---------3------------------|
|--6------------------8---------4------------------|
|--4------------------6---------4------------------|
|-------------------------------2------------------|
    Not tonight Josephine

|--4---------4---------6---------2-----------------|
|--6---------4---------7---------2-----------------|
|--6---------5---------8---------3-----------------|
|--6---------6---------8---------4-----------------|
|--4---------6---------6---------4-----------------|
|------------4-------------------2-----------------|
In an army's strength therein lies the denouement

|--4---------4---------6---------2-----------------|
|--6---------4---------7---------2-----------------|
|--6---------5---------8---------3-----------------|
|--6---------6---------8---------4-----------------|
|--4---------6---------6---------4-----------------|
|------------4-------------------2-----------------|

|--8------------------6----------------------------|
|--9------------------7----------------------------|
|--10-----------------8----------------------------|
|--10-----------------8----------------------------|
|--8------------------6----------------------------|
|--------------------------------------------------|
By the Seine, oh so beautiful

|--8------------------6------------------4---------|
|--9------------------8------------------4---------|
|--10-----------------8------------------5---------|
|--10-----------------8------------------6---------|
|--8------------------6------------------6---------|
|----------------------------------------4---------|
Only not           to be of use       Impossible

So strange victory
Twelve hundred spires, the only sound Moscow burning
Empty like the Tuileries
Like a dream, mmm, Vienna seems
Only not to be of use
Impossible

In the last extremity
To advance or not to advance, I hear you laughing
Even still you're calling me

|--1-------6-------1-------6----------------------|
|--2-------7-------2-------7----------------------|
|--3-------8-------3-------8----------------------|
|--3-------8-------3-------8----------------------|
|--1-------6-------1-------6----------------------|
|-------------------------------------------------|
    Not tonight,     not tonight

|--2---------------4------------------------------|
|--2---------------6------------------------------|
|--3---------------6------------------------------|
|--4---------------6------------------------------|
|--4---------------4------------------------------|
|--2----------------------------------------------|
    Not tonight Josephine
            
Submit corrections

comments powered by Disqus
↑ Back to top | Tori Amos Tabs for Josephine. Lyrics for acoustic guitar and electric guitar. 1 Tablatures and chords are parodies/interpretations of the original songs. You may use it for private study, scholarship, research or language learning purposes only