>
 >
Sober

Sober Guitar Tabs

Tool - Sober chords, tabs, tablatures, lyrics

Guitar lessons | Add/correct | Request | Top 50 tabs Artists:  A B C D E F G H I J K L M N O P Q R S T U V W X Y Z 0-9

Sober Guitar Tabs – Tool

CD, Sheet music, Poster

Do you like Sober? Share with your friends now
Bass TabsBass Tabs v2Bass Tabs v3TabsTabs v2Tabs v3Tabs v4Tabs v5Tabs v6Tabs v7
By TOOL
Undertow
 
Please send me any comments or Tab from 
Soundgarden(Badmotorfinger), any Led Zeppelin, 
Nirvana(Incesticide), any White Zombie, 
C.O.C., or TOOL.  I really nedd these tabs and I 
would like them to be accurate.  Maybe you can 
scan or copy them out of a guitar magazine.  If 
you want I will be willing to trade 
tabs for the ones I have listed.  Send them to my
 
Drop D-Tuning
6-D
 
^-Bend String
/-Slide
/\-Vibrato
H-Hammer ON
P-Pulloff
 
Moderate Rock-156
Half Time Feel
Intro-Feedback
 
			Full--hold bend------------|       Full--hold bend -----------------------------
E|----------------------------------------------------------------------------
B|--10^--10--10--10--10----10----10^---10---10---10---10-10-10-10-10-10-10
G|--12^--12--12--12--12----12----12^---12---12---12---12-12-12-12-12-12-12
D|----------------------------------------------------------------------------
A|----------------------------------------------------------------------------
D|----------------------------------------------------------------------------
 
   ------------------------------------------------grad. release----------------
E|----------------------------------------------------------------------------
B|--10-10-10-10-10-10-10-10-10-10-10-10-10-10-10-10-10-10-10-10-10-10---
G|--12-12-12-12-12-12-12-12-12-12-12-12-12-12-12-12-12-12-12-12-12-12---
D|----------------------------------------------------------------------------
A|----------------------------------------------------------------------------
D|----------------------------------------------------------------------------
 
   ------------------------/                                                   P.M--|     
E|----------------------------------------------------------------------------
B|--10-10-10-10-10-10-10----10-----------3-----------------------3----------
G|--12-12-12-12-12-12-12----12-----------2-----------------------3----------
D|---------------------------------0-------0-----------------------0----------
A|----------------------------------------------------------0-0---------------
D|----------------------------------------------------------------------------
 
     P.M--|                               P.M--|    
E|----------------------------------------------------------------------------
B|----------3-----------------------0-----------------------------------------
G|----------2-----------------------3--------------------14---14-14----------
D|----------0-----------------------3----------------0----0----0--0----------
A|---0-0---------------------0-0---------------------------------------------
D|----------------------------------------------------------------------------
 
                                         
                                            sl.
E|----------------------------------------------------------------------------
B|----------------------------------------------------------------------------
G|-14---12-12---12-12-12/15---15---15-15---15---12-12--12--12-------------
D|--0----0--0----0--0-- 0--------0----0--0----0----0--0----0--0-------------
A|----------------------------------------------------------------------------
D|----------------------------------------------------------------------------
 
                                                                                                   
        sl.                                                                                               sl.
E|----------------------------------------------------------------------------
B|----------------------------------------------------------------------------
G|--12/14------14----14--14----14----12--12----12--12----12/15------15----
D|---0----------0------0---0-----0-----0---0-----0---0------0----------0----
A|----------------------------------------------------------------------------D|----------------------------------------------------------------------------
 
                               sl.
E|------------------------------------------
B|------------------------------------------
G|--15----15----15/17----17--17--17----17-
D|---0-----0-----0---------0---0---0-----0-
A|------------------------------------------
D|------------------------------------------
 
Ist Verse
 
                                                                   P.M.--|     
E|----------------------------------------------------------------------------
B|----------------------------------------------------------------------------
G|--2----------------2-2---3----------------2-------2----------------3-------
D|--0----------------------0------------------------0----------------0--------
A|---------------------------------------------0------------------------------
D|----------------------------------------------------------------------------
 
                                               
E|----------------------------------------------------------------------------
B|----------------------------------------------------------------------------
G|---------3----------------2------2----2--2------2------0--0------0--0------
D|---------0----------------0------0----0--0------0------0--0------0--0------
A|----------------------------------------------------------------------------
D|----------------------------------------------------------------------------
 
 
       sl.
E|----------------------------------------------------------------------------
B|----------------------------------------------------------------------------
G|--2/3------3------3--3------3----0--0------0--0------0H2------2------2--2-
D|--0--------0------0--0------0----0--0------0--0------2--------0------0--0-
A|----------------------------------------------------------------------------
D|----------------------------------------------------------------------------
 
 
                                                           sl.                                            sl.
E|----------------------------------------------------------------------------
B|----------------------------------------------------------------------------
G|------2------0--0------0--0----2/3------3------3--3------3/5----5--5--5---
D|------0------0--0------0--0----0--------0------0--0------0------0--0--0---
A|----------------------------------------------------------------------------
D|----------------------------------------------------------------------------
 
                  PreChorus
 
                  P.M.---------------|           P.M.---------|          P.M.-------|
E|----------------------------------------------------------------------------
B|-----------------------------15-----------------15--------------16---------
G|---5-------------------------14-----------------14--------------15--------
D|---0------------------------------------------------------------------------
A|----------------------------------------------------------------------------
D|---------12-12-12-12-12-12-------12-12-12-12-------12121212-------------
 
 
    P.M.---------|           P.M.---------|         P.M.-----|          P.M.----------|
E|----------------------------------------------------------------------------
B|----------------16----------------16------------15----------------15-------
G|----------------15----------------15------------14----------------14-------
D|----------------------------------------------------------------------------
A|----------------------------------------------------------------------------
D|--13-13-13-13------13-13-13-13------12121212------12-12-12-12-----------
 
 
     P.M.---------|          P.M.------|         P.M.----------|
E|----------------------------------------------------------------------------
B|----------------15-------------16----------------16------16---16---16-----
G|----------------14-------------15----------------15------15---15---15-----
D|----------------------------------------------------------------------------
A|----------------------------------------------------------------------------
D|--12-12-12-12------12121212-------13-13-13-13---------------------------
 
 
                                                              Chorus
E|----------------------------------------------------------------------------
B|--16---16-16-16-16-16-16-16----------------------------------------------
G|--15---15-15-15-15-15-15-15----------------------------------------------
D|------------------------------------0--------------------------------------
A|------------------------------------0--------------------------------------
D|------------------------------------0--------------------------------------
 
E|-------------------------------------
B|-------------4----------4---4--4--4-
G|-------------3----------3---3--3--3-
D|--1----------------------------------
A|--1----------------------------------
D|--1----------------------------------
 
Repeat Chorus 3 Times
 
Guitar Solo
                                                                                           grad. bend
     /\/\/\/\/\/\/\/\/\/\/\/\/\/\                                         ---------Full--|
E|---------------------------------------------------------------------------
B|--------------------------------3--5----------------------------------------
G|--2-----------------------------2--2---3----------3^------------------------
D|----------------------------------------------------------------------------
A|----------------------------------------------------------------------------
D|----------------------------------------------------------------------------
 
                                                                              /\/\/\/\/\/\/\/\/\/\/\/\/\/\/\/\
E|------------5---------------------------------------------------------------
B|------------------------3--5-----------------------------------------------
G|--2---------------------2--2--3------3/5--5--------------------------------
D|----------------------------------------------------------------------------
A|----------------------------------------------------------------------------
D|----------------------------------------------------------------------------
 
 
E|-------
B|-------
G|-------
D|--0--0-
A|-------
D|-------
 
2nd Verse
 
E|----------------------------------------------------------------------------
B|----------------------------------------------------------------------------
G|--2----------------3----------------2----------------3----------------7----
D|--0----------------0----------------0----------------0----------------7----
A|----------------------------------------------------------------------------
D|----------------------------------------------------------------------------
 
                                            sl.
E|----------------------------------------------------------------------------
B|----------------------------------------------------------------------------
G|----7------7--7--------7/5----5------5--5----5/8------8------8--8---------
D|----7------7--7--------7/5----5------5--5----5/8------8------8--8---------
A|----------------------------------------------------------------------------
D|----------------------------------------------------------------------------
 
      sl.                                     sl.                                                  sl.
E|----------------------------------------------------------------------------
B|----------------------------------------------------------------------------
G|--8/5----5------5--5----5/7--------7------7--7--------7/5----5------5--5--
D|--8/5----5------5--5----5/7--------7------7--7--------7/5----5------5--5--
A|----------------------------------------------------------------------------
D|----------------------------------------------------------------------------
 
 
          sl.                                                sl.
E|-----------------------------------------------------------
B|-----------------------------------------------------------
G|----5/8--------8------8--8------8/10----10--10--10----10-
D|----5/8--------8------8--8------8/10----10--10--10----10-
A|-----------------------------------------------------------
D|-----------------------------------------------------------
 
PreChorus
Chorus 4 Times
 
                                                                                improvise w/ trem. and feedback
                                                                                      sl.
E|----------------------------------------------------------------------------
B|--3-------------------------------------------3/15-------------------------
G|--2-------------------------------------------2/14-------------------------
D|--0-------------------------------------------------------------------------
A|--0-------------------------------------------------------------------------
D|--0-------------------------------------------------------------------------
 
 
3rd Verse
Bass plays notes for the next 10 bars
 
                  Grad. release palm pressure
   P.M.-------------------------------------------------------------------------
E|----------------------------------------------------------------------------
B|----------------------------------------------------------------------------
G|--8---8---8---8---8---8---8---8---8---8---8---8---8---8---8---8---7---7---
D|--8---8---8---8---8---8---8---8---8---8---8---8---8---8---8---8---7---7---
A|--6---6---6---6---6---6---6---6---6---6---6---6---6---6---6---6---5---5--
D|----------------------------------------------------------------------------
 
 
 
E|----------------------------------------------------------------------------
B|----------------------------------------------------------------------------
G|--7---7---7---7---7---7---7---7---7---7---7---7---7---7---8---8-----------
D|--7---7---7---7---7---7---7---7---7---7---7---7---7---7---8---8-----------
A|--5---5---5---5---5---5---5---5---5---5---5---5---5---5---6---6-----------
D|----------------------------------------------------------------------------
 
 
                                  Full------------|
E|-----------------17^--17--17--17--
B|-----------------20^--20--20--20--
G|--8---8---------------------------
D|--8---8---------------------------
A|--6---6---------------------------
D|----------------------------------
 
Chorus 4 Times
Outro
 
E|----------------------------------------------------------------------------
B|--3----------3------3--3------3--3/4--4------4----4----4------4--6--------
G|--2----------2------2--2------2--2/3--3------3----3----3------3--3--------
D|--0-------------------------------------------------------------------------
A|--0-------------------------------------------------------------------------
D|--0-------------------------------------------------------------------------
 
 
                                            Full-------|
E|----------------------------------------------------------------------------
B|--6--4------4----------3^---3---3------3--3----3--3----3--3--3----4-------
G|--3--3------3--0--0----5^---5---5------5--2----2--2----2--2--2----3-------
D|----------------------------------------------------------------------------
A|----------------------------------------------------------------------------
D|----------------------------------------------------------------------------
 
                                                                                        Full------------|
E|----------------------------------------------------------------------------
B|--4------4--4------4--6------6--4----------------15^---15---15------------
G|--3------3--3------3--3------3--3------2P0-------17^---17---17-----------
D|----------------------------------------------------------------------------
A|----------------------------------------------------------------------------
D|----------------------------------------------------------------------------
 
 
E|----------------------------------------------------------------------------
B|--15---15------15--15------15--15------15--15--15----16------16------16--
G|--17---14------14--14------14--14------14--14--14----15------15------15--
D|----------------------------------------------------------------------------
A|----------------------------------------------------------------------------
D|----------------------------------------------------------------------------
 
                                                                                               Full------------|
E|----------------------------------------------------------------------------
B|--16------16--18------18--16------16---15---13------15^---15---15--------
G|--15------15--15------15--15------15---12---12------17^---17---17--------
D|----------------------------------------------------------------------------
A|----------------------------------------------------------------------------
D|----------------------------------------------------------------------------
 
E|----------------------------------------------------------------------------
B|--15----15------15--15------15--15----15--16------16------16--16---------
G|--17----14-------------------------------------------------------------------------------
A|----------------------------------------------------------------------------
D|----------------------------------------------------------------------------
 
E|----------------------------------------------------------------------------
B|--16--18------18---16------------------------------------------------------
G|--15--15------15---15--------------7---7------7---7-----------------------
D|------------------------------------7---7------7---7-----------------------
A|------------------------------------5---5------5---5-----------------------
D|-------------------------0-0-0---------------------------------------------
 
E|----------------------------------------------------------------------------
B|----------------------------------------------------------------------------
G|------8---8------8---8---------------------7---7------7---7----------------
D|------8---8------8---8---------------------7---7------7---7----------------
A|------6---6------6---6---------------------5---5------5---5----------------
D|----------------------------------------------------------------------------
 
E|----------------------------------------------------------------------------
B|----------------------------------------------------------------------------
G|-----8---8------8---8---------------------7---7------7---7-----------------
D|-----8---8------8---8---------------------7---7------7---7-----------------
A|-----6---6------6---6---------------------5---5------5---5-----------------
D|----------------------------------------------------------------------------
 
There it is.  All of the songs riffs are here.  
Listen to it to figure where they go.  This is 
as accurate as you can get.  Please send any 
 
 
 

--
ex

edit




Intro to Tool's "Sober" From "Undertow"

   fdbk..............................      full..........
|-----|------|------|-----------|------|---^-------------|
|-----|------|------|-----------|------|-10^---10---10---|
|--7--|-(7)--|-(7)--|-(7)--(7)--|--(7)-|-12----12---12---|
|-----|------|------|-----------|------|-----------------|
|-----|------|------|-----------|------|-----------------|
|-----|------|------|-----------|------|-----------------|

------------------------------------------|--------------------------------------------------|
10-----10--------10-----10-----10-----10--|--10-----10-----10--10-----10-----10-----10-------|
12--------12--------12-----12-----12------|-----12-----12---------12-----12-----12-----12----|
------------------------------------------|--------------------------------------------------|
------------------------------------------|--------------------------------------------------|
------------------------------------------|--------------------------------------------------|
                                                                                
-------------------------------------------------|----------|----------|----------|---------|
10-----10-----10-----10-----10-----10------------|-3----x-x-|-3--------|-3----x-x-|-3---(3)-|
---12-----12-----12-----12-----12-----12--12--x--|-2----x-x-|-3--------|-2----x-x-|-3---(3)-|
-------------------------------------------------|-0----x-x-|-0----0---|-0----x-x-|-0---(0)-|
-------------------------------------------------|----------|--------0-|----------|---------|
-------------------------------------------------|----------|----------|----------|---------|

|---------------------------------------------|
|--10-----10---10---10-----10-----8--8-----8--|
|--x------x----x----x------x------x--x-----x--|
|--7------7----7----7------7------5--5-----5--|
|---------------------------------------------|
|---------------------------------------------|

|----------------------------------------------------|----------------------------------------------|------------------------------------------------------------||
|--8/11--11--11-----11--11-----11--8--8--------8--8--|--8/10--10--10-----10--10-----10-----x--8--8--|--8/11--11--11-----11--11--11--11/13-----13--13-----13--13--||
|--x-----x---x------x---x------x---x--x--------x--x--|--x-----x---x------x---x------x------x--x--x--|--x-----x---x------x---x---x---x---------x---x------x---x---||
|--5/8---8---8------8---8------8---5--5--------5--5--|--5/7---7---7------7---7------7---------5--5--|--5/8---8---8------8---8---8---8-/10-----10--10-----10--10--||
|----------------------------------------------------|----------------------------------------------|------------------------------------------------------------||
|----------------------------------------------------|----------------------------------------------|------------------------------------------------------------||





Comments


Popular Tool tabs & chords
Eon Blue Apocalypse Bass Tabs
Parabol 1 Bass Tabs
Soberr 1 Bass Tabs
46 And Tabs
Aenima 2 Tabs
Disposition Tabs
Forty-Six And Two 2 Tabs
Intolerance Tabs
Jimmy Tabs
Parabol And Parabola 2 Tabs


Song lyrics



↑ Back to top | Tablatures and chords are parodies/interpretations of the original songs. You may use it for private study, scholarship, research or language learning purposes only
© 2014 AZChords.com Contact us | Privacy policy | DMCA | Add/correct tabs | Request tabs | Top 50 tabs