» » »

Tool, Lateralus Tabs (ver.1)

Artists:  A B C D E F G H I J K L M N O P Q R S T U V W X Y Z # 

Lateralus Tabs (ver.1)

Tool Tabs
 Rating:
4/5 (4 votes)
Lateralus lessons Tabs too difficult? Try these video lessons and learn fast
1
                
Drop D Tuning- 

* = mute (left hand - not right)


Intro:

guitar part

E:-----------------------------|
B:-----------------------------|
G:-----------5-----------------|
D:-----7-5-7----7---5---7--5---|
A:---5------------5-----------5|
D:0----------------------------|

Intro Change:

E:---------------|
B:---------------|
G:---------------|
D:---7------7----|
A:---------------|
D:5-----3------0-|

Repeat as desired to.


Let's just skip to the fun part.
YOU NEED TO PAY ATTENTION TO SPACING AS IT WILL BE PLAYING A VITAL ROLE AS EIGTH NOTES IN THE SONG f**kED UP TIME SIGNATURE.

CHORUS:

E:-----------------------------------------|
B:-----------------------------------------|
G:---------------------------------------57|
D:0-0**0-0**0-53003-3**3-3**353035-5*5-3-57|
A:0-0**0-0**0-53003-3**3-3**353035-5*5-3-35|
D:0-0**0-0**0-53003-3**3-3**353035-5*5-3---|
                                ^
Slide right here----------------|
(From the 3rd fret to the 5th)

Verse:

Bass Part (on guitar):

E:-----------------------|
B:-----------------------|
G:-----------------------|
D:0------------0---------|
A:---------3-----------5-|
D:---0---3-------0---5---|

Guitar Part:

Muted (right hand)

E:--------------------------------------|
B:--------------------------------------|
G:--------------------------------------|
D:0-0-0-0--0-3-3-3-3--0-0-0-0--0-5-5-5-5|
A:0-0-0-0--0-3-3-3-3--0-0-0-0--0-5-5-5-5|
D:0-0-0-0--0-3-3-3-3--0-0-0-0--0-5-5-5-5|

Lyrics:
"Black and white are all I see in my infancy..."


Stop on the 5th fret on the 4th time through before the chorus.


----------------------------




Bridge:

Bass Part:

(6th string on guitar, 4th string on Bass)

D:0000-0000-0000-0000|    <---(mindbending!!!!)   <--sarcasm

Guitar:

E:------------------------------------------
B:------------------------------------------
G:-------------------------------------5----
D:----7----------7------------7--5--7-----7-
A:------------------------------------------
D:5-----------3-----------0-----------------

Lyrics:
...Step aside, and weep like a widow, to.....
Driving Riff:

Guitar:

E:--------------------|
B:--------------------|
G:--------------------|
D:0-0**0-0**0-0**0-0**|
A:0-0**0-0**0-0**0-0**|
D:0-0**0-0**0-0**0-0**|

Bass (when it comes in):

G:--------------------|
D:--------------------|
A:--------------------|
D:5_5**5_5**5_5**5_5**|


G:----------------------------|
D:----------------------------|
A:----------------------------|
D:12_12**10_10**12_12**15_15**|

Lyrics:
With my feet up on the ground, I lose myself....


Just rinse, lather, and repeat.


Outro:

E:----------------------|
B:----------------------|
G:--7(8)7----------5----|
D:-----------5--5-5-----|
A:----------------------|
D:----------------------|


E:-------------------|
B:-------------------|
G:---------5-7-------|
D:--5-3----5-7-0-----|
A:--5-3----3-5-0-----|
D:--5-3--------0-----|
 

Sorry, that's all I could get from an acoustic.
If you have any corrections PLEASE TELL ME!!! I would like to know how to play the parts I don't know.

*If you are having trouble with the chorus, listen to it and read the tabs as you are playing with it to understand the rhythms.

Feel free to e-mail me with questions, comments, blah blah blah...

William D. Holliday IV
            
Submit corrections

comments powered by Disqus
↑ Back to top | Tool Tabs for Lateralus. Lyrics for acoustic guitar and electric guitar. 1 Tablatures and chords are parodies/interpretations of the original songs. You may use it for private study, scholarship, research or language learning purposes only