>
 >
Soldier's Daughter

Soldier's Daughter Guitar Tabs

Tonic - Soldier's Daughter chords, tabs, tablatures, lyrics

Guitar lessons | Add/correct | Request | Top 50 tabs Artists:  A B C D E F G H I J K L M N O P Q R S T U V W X Y Z 0-9

Soldier's Daughter Guitar Tabs – Tonic

CD, Sheet music, Poster

Do you like Soldier's Daughter? Share with your friends now
ChordsTabsTabs v2
Tonic - Soldiers Daughter
tuning: Acoustics/Electric Guitar in DADF#AE but capo 4th fret

This is the way that Emerson and Jeff play it in Tonic. Tune down 2nd and 6th strings
a full step and the 3rd string a half step to get open Dadd9 tuning.

This was as close as I could get, so have fun and rate or comment please.

Intro - Two Acoustics

play 2x
|------0--0--0----0--0-|----0---0-0--0-0--0000-0-0--0-0--000-0-0-----|
|-/4_______--4\2--0----|--------0---------------------0------0-0-4-2-|
|-----------------3----|---------------0-------0---------------------|
|----------------------|---------------------------------------------|
|----------------------|---------------------------------------------|
|----------------------|-0----0--------------------------------------|

Third time:

Acoustic 1 - Emerson Hart                     (add strums on end of line)
|------0--0--0----0--0-|----0-0--0-0--0000-0-0h2-5-2-3-2h3p2p0-0-0--0--0-|
|-/4_______--4h5--4----|----0------0--------------------------------0----|
|------------3----3----|-----------------------------------------0-----0-|
|----------------------|-------------------------------------------------|
|----------------------|-------------------------------------------------|
|----------------------|-------------------------------------------------|
|
| Acoustic 2 - Jeff Russo
|------0--0-------0--0-|------------------------|
|-/4_______--0----0----|-0----------------------|
|------------0----0----|-0----------------------| this part ends
|----------------------|-0----------------------| but an electric
|----------------------|------------------------| comes in
|----------------------|------------------------|

Verse - play similarly 3x

 Acoustic 1 - v is upstroke arpeggio
|-------0000---00-------|-----000------v0--|--------------------|------0-00-----0-|
|-----0------0----0h2---|---0-----0-0---0--|----0--0----0--0--0-|-0--0-0----0-0-0-|
|-----3-----------------|-0-0-----0-0---0--|----0--0--2/3--3--2-|-0--0------0-0---|
|-2----------2--------2-|------------------|-0------------------|-----------------|
|-----------------------|------------------|--------------------|-----------------|
|-----------------------|------------------|--------------------|-----------------|
|
| Clean Electric - listen for timing
|-------------0---------|------------0--0--|--------------------|---------------|
|-----2----0------------|-------2--0----0--|------------0--0--0-|-0---------0---|
|-----------------------|---------------3--|----------2/3--3--2-|-0---------0---|
|---2-------------------|-----2------------|--------------------|-------------0-|
|-0---------------------|---0--------------|--------------------|---------------|
|-----------------------|---------------0--|--------------------|---------------|

At 1:05, play this:

Acoustic
|----0------000-0-0--0-00-|--0--0--000-0-0-00-0-0-0--0-0-|-(0)--------------|
|-2-----2---222-2-2--2-22-|--2--2--222-2-2-22-2-2-2--2-2-|-(2)--------------|
|-3-----3-------3-3--3----|--3--3------3-3------3-3----3-|-(3)--------------|
|-2-----------------------|------------------------------|------------------|
|-4-----------------------|------------------------------|------------------|
|-------------------------|------------------------------|--2---------------|
|
|-------------------------|------------------------------|------------------|
|-----------2-------------|----------2-------------------|------------------|
|-------------------------|------------------------------|------------------|
|-2------2----------------|-------2----------------------|------------------|
|-4---4-------------------|----4-------------------------|------------------|
|-------------------------|------------------------------|------------------|


New Verse (1:17) - Play Acoustic verse riff, but a Distorted Electric plays:

play 4x with slight rhythm changes
|--------------------|--------------------|--------------------|------------------|
|-2----2--2-2--0-----|-------2--2-2--0----|------0---0----0--0-|----------------0-|
|-3----3--3-3--3-----|-------3--3-3--3----|------3---2/3--2--0-|-----0--------0-0-|
|-2----2--2-2--2---2-|-------2--2-2--2----|------2---2----2--0-|-----0------2-4---|
|-0----------------0-|--------------------|--------------------|-----0--2/4-------|
|--------------------|--------------------|-0------------------|---0--------------|


Prechorus (2:03) - Distorted Electric              Acoustic Part
           * * slight pm
|--------------------|                |-0-0-0----0--0-0-0----0-|
|-2----2---2-2----2--|                |-2-2-2----2--2-2-2----2-|
|-2----2---2-2----2--|                |-2-2-2--2----2-2-2--2---| play both
|-2----2---2-2----2--|                |-2-2-2--2----2-2-2--2---|  parts 4x
|-4----4---4-4--4----|                |------------------------|
|--------------------|                |------------------------|


Chorus - Distorted Electric (Acoustic just adds extra strums on high open strings)
  F#                   G#sus4               A#sus4              G#
|--------------------|--------------------|-------------------|-------------------|
|-----0----0-0---0---|-------0---0-0------|-------------------|-------------------|
|-3---3----3-3---3---|-3-----3---3-3------|-5----5----5----5--|-5----5---5p3h5-5--|
|-0------------------|-2-------------2----|-4----4----4----4--|-2----2---2-----2--|
|-0------------------|-2---2---------2----|-4----4----4----4--|-2----2---2-----2--|
|-0------------------|-2---2---------2----|-4----4----4----4--|-2----2---2-----2--|

  F#                   G#sus4               C#add2
|--------------------|--------------------|-------------------|-------------------|
|-----0----0-0---0---|-------0---0-0------|-------------------|-------------------|
|-3---3----3-3---3---|-3-----3---3-3------|-5----5----5----5--|-5----5---5----5---|
|-0------------------|-2-------------2----|-7----7----7----7--|-7----7---7----7---|
|-0------------------|-2---2---------2----|-7----7----7----7--|-7----7---7----7---|
|-0------------------|-2---2---------2----|-7----7----7----7--|-7----7---7----7---|


Distorted Guitar Solo (2:36) - Acoustic plays Chorus chords during solo
|-----0------0--0-0--|-0--0--0---0--2--0--|---------------------|
|-0------0------0-0--|-0--0--0---0--0--0--|-0-0--0--0--0-0-0----|
|-2/3----2/3----3-3--|-3--3--3---3--3--3--|-7-8-10-10-10-8-7tr8-|
|--------------------|--------------------|---------------------|
|--------------------|--------------------|---------------------|
|--------------------|--------------------|---------------------|

|----0-0-0-----------|-----0-----0---0----|-----0------0----0-----|
|-0--0-0-0----0-0-0--|---0-----0---0---0--|---0------0----0---0---|
|-5---------4/5-2-0--|-0h2---2/3---3---7--|-7h8---8/10---10---10--|
|--------------------|--------------------|-----------------------|
|--------------------|--------------------|-----------------------|
|--------------------|--------------------|-----------------------|

|-0---0----0-----0---|-0--0-0--0---0-------------|
|-0---0----0-----0---|-0----0----0-0----0-0-0-0--|
|-8---10---8\7/8-8---|-8----8----8-8\7--8-8-8-8--|
|--------------------|---------------------------|
|--------------------|---------------------------|
|--------------------|---------------------------|


Bridge - Electric and Acoustic combined, Acoustic plays top strings

|-------------------------|-------------------------|-----0--0-----------|
|-3---3-3----3-3----3-3---|-3---3-3----3-3----3-3---|-0---0--0-0-0--0--0-|
|-3---3-3----3-3----3-3---|-3---3-3----3-3----3-3---|-3---3--3-3-3--3--3-|
|-3---3-3----3-3----3-3---|-3---3-3----3-3----3-3---|-2---2--2-2-2--2--2-|
|-3---3-3----3-3----3-3---|-3---3-3----3-3----3-3---|-0---0--0-0-0--0--0-|
|-3---3-3----3-3----3-3---|-3---3-3----3-3----3-3---|--------------------|

|-----0--0------0----|-------------------------|-------------------------|
|-0---0--0-0-0--0--0-|-3---3-3----3-3----3-3---|-3-3-3--3-3--3-3-3--3-3--|
|-3---3--3-3-3--3--3-|-3---3-3----3-3----3-3---|-3-3-3--3-3--3-3-3--3-3--|
|-2---2--2-2-2--2--2-|-3---3-3----3-3----3-3---|-3-3-3--3-3--3-3-3--3-3--|
|-0---0--0-0-0--0--0-|-3---3-3----3-3----3-3---|-3-3-3--3-3--3-3-3--3-3--|
|--------------------|-3---3-3----3-3----3-3---|-3-3-3--3-3--3-3-3--3-3--|


(3:15)
bottom = Electric, top = Acoustic
|------0--0----000----000-|-----0--0----000----000--|----------000----0-0--|
|-2----2--2-2--222-2--222-|-2---2--2-2--222-2--222--|-------2--222-2--2-2--|
|-2---------2------2------|-2--------2------2-------|-------2--222-2--2-2--|
|-------------------------|-------------------------|-------2--------------|
|-2-----------------------|-------------------------|-2-2/4----------------|
|-2-----------------------|-------------------------|----------------------|

|----0-0-------0--0-00-|----0-0----0-00-|------0--------00-|
|-2--2-2-2--2--2--2-22-|----2-2-2--2-22-|-2-2--2-2--2-2-22-|
|-2------2--2--2--2----|--------2-------|-2-2----2--2-2----|
|-2------2-------------|--------2-------|-2-2----2--2-2----|guessing at
|-----------2--4--4----|----------------|------------------|the rhythm
|----------------------|-2--------------|------------------|here


Last Bar above, Electric Guitar comes in
|-------------------------|
|-0--0-0--0--0-----0--0---|
|-7--8-10-8--7h8p7-3--3---|
|---------------------4---|
|-------------------------|
|-------------------------|


Play Chorus again

End Chorus - Acoustic and Electric (low E notes)
|--------------------|--------------------|---------0---00----|--------0---00-----|
|-----0----0-0---0---|-0---0--0--0-0-0----|-0----0--0-0-00-0--|-0--0-0-0-0-00-0---|
|-3---3----3-3---3---|-2---3--3--5-3-2----|-5----5----5----5--|-5----5---5----5---|
|-0------------------|-2-------------2----|-5----5----5----5--|-5----5---5----5---|
|-0------------------|-2---2---------2----|-5----5----5----5--|-5----5---5----5---|
|-0------------------|-2---2---------2----|-5-------------5\--|-0-----------------|

 Acoustic
|---------------------|---------------------|------|
|-0----0--0-0-00-0--0-|-0--0-0--0-0-00-0-0--|------|
|-5----5----5----5----|-5----5----5----5----|-5----|
|-5----5----5----5----|-5----5----5----5----|-5----|
|-5----5----5----5----|-5----5----5----5----|-5----|
|---------------------|---------------------|-5----|
|
|Electric
|---------------------|---------------------|------|
|-0-------------------|-(0)-----------------|-(0)--|
|-8-------------------|-(8)-----------------|------|
|---------------------|---------------------|------|
|---------------------|---------------------|------|
|---------------------|---------------------|-5----|

Play Intro (rhythm varies, but same riff overall)

Ending - both parts
|-0-----------------------|
|-0-----------------------|
|-5-----------------------|
|-2-----------------------|
|-0^----------------------|
|-------------------------|
  ^ play slow downward picking arpeggio, low to high


Key:
| /  slide up
| \  slide down
| h  hammer-on
| p  pull-off
| b  bend note
| r  release bend
| ~  vibrato
| x  Mute note
| ^  downstroke chord arpeggio
| v  upstroke chord arpeggio
| () held note from previous bar





Comments


Popular Tonic tabs & chords
Precious Little Bird Bass Tabs
Do You Know 2 Chords
Open Up Your Eyes Chords
Count On Me Tabs
Eyes Of Sand Tabs
Irish Tabs
Mean To Me 1 Tabs
Sugar 1 Tabs
Do You Know 2 Ukulele
Sugar Ukulele


Song lyrics



↑ Back to top | Tablatures and chords are parodies/interpretations of the original songs. You may use it for private study, scholarship, research or language learning purposes only
© 2014 AZChords.com Contact us | Privacy policy | DMCA | Add/correct tabs | Request tabs | Top 50 tabs