» » »

Release Me Tabs (ver.1)

Artists:  A B C D E F G H I J K L M N O P Q R S T U V W X Y Z # 

Release Me Tabs (ver.1)

Tonic
Rating:
5/5 (1 vote)

Hard to play? Try these video lessons and learn fast.
                Tonic: Release Me
Corrections and suggestions welcome

Tuning: D A D F# A D - (low to high)
                            
Song progression:

[Verse]:
   
D:-0----0---0----------0-------0--------0----------0------0------------|
A:-0----0---0----------0-------0--------0----------0------0------------|
F#-7----7---8----------7-------7--------8----------7------3------------|
D:-x----x---x----------x-------x--------x----------x------x------------|
A:-7----7---7----------7-------7--------7----------7------3------------|
D:-7----7---7----------7-------7--------7----------7------3------------|
   come and release me sender  come and release me I will go

   
D:-0---------------------------0---------------------------------------|
A:-0---------------------------0---------------------------------------|
F#-3--------------------------/7---------------------------------------|
D:-x---------------------------x---------------------------------------|
A:-3--------------------------/7---------------------------------------|
D:-3--------------------------/7---------------------------------------|
   It's a part of me to show


[Bridge]:

D:------7-------7-------7-------7-------7----------------------------|
A:------7-------7-------7-------7-------7----------------------------|
F#------7-------7-------7-------7-------7----------------------------|
D:------7-------7-------7-------7-------7----------------------------|
A:------7-------7-------7-------7-------7----------------------------|
D:--5h7-7---5h7-7---5h7-7---5h7-7---5h7-7----------------------------|

[chorus]:

D:-0-----------------0---------------0---------------0-----------------|
A:-0-----------------0---------------0---------------0-----------------|
F#-7-----------------3---------------7---------------0-----------------|
D:-7-----------------3---------------7---------------3-----------------|
A:-5-----------------3---------------5---------------3-----------------|
D:---------------------------------------------------3-----------------|
   I want to want to know  where the deeper parts of life will grow

D:-0-----------------0---------------0---------------0-----------------|
A:-0-----------------0---------------0---------------0-----------------|
F#-7-----------------3---------------7---------------0-----------------|
D:-7-----------------3---------------7---------------3-----------------|
A:-5-----------------3---------------5---------------3-----------------|
D:---------------------------------------------------3-----------------|
   I want to want to see where's the deeper part of  love in me

D:------------------------0--------------------------------------------|
A:------------------------0--------------------------------------------|
F#------------------------0--------------------------------------------|
D:--2h4--44-4s7-77-7-0-00-0--------------------------------------------|
A:--2h4--44-4s7-77-7-0-00-0--------------------------------------------|
D:--2h4--44-4s7-77-7-0-00-0--------------------------------------------|
                            Where's the part of love in me

[End]:
D:---------------------------------------------------------------------|
A:---------------------------------------------------------------------|
F#-7--------8-------7---7--------8-------7-----------------------------|
D:-x--------x-------x---x--------x-------x-----------------------------|
A:-7--------7-------7---7--------7-------7-----------------------------|
D:-7--------7-------7---7--------7-------7-----------------------------|
   come and release me  come and release me

D:-0-----------------0---------------0---------------0-----------------|
A:-0-----------------0---------------0---------------0-----------------|
F#-7-----------------3---------------7---------------0-----------------|
D:-7-----------------3---------------7---------------3-----------------|
A:-5-----------------3---------------5---------------3-----------------|
D:---------------------------------------------------3-----------------|
   I want to want to know  where the deeper parts of life will grow

D:-0-----------------0---------------0---------------0-----------------|
A:-0-----------------0---------------0---------------0-----------------|
F#-7-----------------3---------------7---------------0-----------------|
D:-7-----------------3---------------7---------------3-----------------|
A:-5-----------------3---------------5---------------3-----------------|
D:---------------------------------------------------3-----------------|
   I want to want to see where's the deeper part of  love in me

D:------------------------0--------------------------------------------|
A:------------------------0--------------------------------------------|
F#------------------------0--------------------------------------------|
D:--2h4--44-4s7-77-7-0-00-0--------------------------------------------|
A:--2h4--44-4s7-77-7-0-00-0--------------------------------------------|
D:--2h4--44-4s7-77-7-0-00-0--------------------------------------------|
                            Where's the part of love in me
            
Hard to play? Try these video lessons and learn fast. | Correct




comments powered by Disqus
↑ Back to top | Tablatures and chords are parodies/interpretations of the original songs. You may use it for private study, scholarship, research or language learning purposes only