>
 >
Precious Little Bird

Precious Little Bird Bass Tabs

Tonic - Precious Little Bird chords, tabs, tablatures, lyrics

Guitar lessons | Add/correct | Request | Top 50 tabs Artists:  A B C D E F G H I J K L M N O P Q R S T U V W X Y Z 0-9

Precious Little Bird Bass Tabs – Tonic

CD, Sheet music, Poster

Do you like Precious Little Bird? Share with your friends now
Bass TabsTabs
Precious Little Bird-TONIC 
-------------------------------------------------------------------------------

Tuning: Standard
 
 Intro 

G|---------------------------------------------------------|
D|---------------------------------------------------------|
A|---------------------------------------------------------|
E|----------------8888888888888888-4-4-4-4-4-4-6-6-6-6-6-6-|

  Verse

G|---------------------------------------------------------|
D|---------------------------------------------------------|
A|---------------------------------------------------------|
E|88888888888888888888888888888888-4-4-4-4-4-4-6-6-6-6-6-6-|

  it's the ringing in my

G|--------------------------------------------------------------------------|
D|--------------------------------------------------------------------------|
A|--------------------------------------------------------------------------|
E|88888888888888888888888888888888-4-4-4-4-4-4-6-6-6-6-6-6-8888888888888888-|

  Chorus
  
G|------------------------------------------------------------------------|
D|------------------------------------------------------------------------|
A|-\12-12-12-12-12-14-14-14--------------------\12-12-12-12-12-14-14-14---|
E|--------------------------6-8888888888888888--------------------------6-|

  she's the one you're gonna

G|-------------------------------------------------------------------------------|
D|---------------------7-6-6-6-6-6-8-8-8-8-8-------------------------------------|
A|----------------6\10-----------------------------------------------------------|
E|888888888888888----------------------------888-8-8-6-8-6-8-4-4-4-4-4-6-6-6-6-6-|



 Chorus 2  

G|---------------------------------------------------------------------------|
D|---------------------------------------------------------------------------|
A|-\12-12-12-12-12-14-14-14--------------------\12-12-12-12-12-12-14-14-14---|
E|--------------------------6-8888888888888888-----------------------------6-|

  

G|--------------------------------------------|
D|----------------------7-6-6-6-6-6-8-8-8-8-8-|
A|-----------------6\10-----------------------|
E|8888888888888888----------------------------|


 
 Interlude 

G|------------------------------------------------------------------------------------------|
D|------------------------------------------------------------------------------------------|
A|------------------------------------------------------------------------------------------|
E|-888-8-8-6-8-6-8-666-6-6-4-6-4-6-888-8-8-6-8-6-8-4-4-4-4-4-4-6-6-6-6-6-6-8888888888888888-|


 Outro 

G|---------------------------------------------------------------------------|
D|---------------------------------------------------------------------------|
A|---------------------------------------------------------------------------|
E|-4-4-4-4-4-4-6-6-6-6-6-6-8888888888888888-4-4-4-4-4-4-6-6-6-6-6-6-88888888-|



G|-------------------------------------------------------------------------------------|
D|--------------------------------------------------------7----------------------------|
A|---------------------------------------------------6\10---\12-12-12-12-12-14-14-14---|
E|-88888888-4-4-4-4-4-4-6-6-6-6-6-6-8888888888888888---------------------------------8-|



   Verse
   Intro     
   Chorus
   Verse
   Chorus 2
   Interlude
   Outro
===============================================================================





Comments


Popular Tonic tabs & chords
If You Could Only See 1 Bass Tabs
My Old Man Bass Tabs
Daffodil 1 Chords
On Your Feet Again Chords
Waltz With Me 1 Chords
If You Could Only See (Acoustic) Tabs
Mean To Me 1 Tabs
Top Falls Down Tabs
If You Could Only See 2 Ukulele
Soldiers Daughter Ukulele


Song lyrics



↑ Back to top | Tablatures and chords are parodies/interpretations of the original songs. You may use it for private study, scholarship, research or language learning purposes only
© 2014 AZChords.com Contact us | Privacy policy | DMCA | Add/correct tabs | Request tabs | Top 50 tabs