» » »

Tonic, Love A Diamond Tabs (ver.1)

Artists:  A B C D E F G H I J K L M N O P Q R S T U V W X Y Z # 

Love A Diamond Tabs (ver.1)

Tonic Tabs
Rating:
5/5 (1 vote)
Love A Diamond lessons Tabs too difficult? Try these video lessons and learn fast
                Tonic - "Love a Diamond"
Tuning: Eb Bb Eb Ab C Eb


To get tuning, drop high and low E strings to D and capo 1st fret. Tab is
written with every note referring to the capo as 0, so try to remember that.
This is a fairly simple song to play, so have fun. Please rate or comment.


Main Riff (Acoustic):

|-----7---0-7\--5-------5---0-5\---|---------0-----0-----------------|
|----------------------------------|-----3-----3---------------------|
|---------------------5------------|-----------------------0---------|
|----------------------------------|---5-----------------4-----4-----|
|---5---------------3--------------|-------------------5---------5---|
|-0--------------------------------|-5---------------0---------------|


Chorus - Play 4x
 Acoustic
|---------0-------------0-----|---------0-------------0-----|
|-----0-----0-------0-----0---|-----0-----0-------0-----0---|
|-----------------------------|---0-------------0-----------|
|---2-------------2-----------|-0-------------0-------------|
|-----------------------------|-----------------------------|
|-2-------------2-------------|-----------------------------|
|                                         ^ on 4th time, stop here
|Lead Electric
|-0---------------------------|-0---------------------------|
|-0---------------------------|-0---------------------------|
|-0---------------------------|-0---------------------------|
|-2---------------------------|-5---------------------------|
|-2---------------------------|-5---------------------------|
|-2---------------------------|-5---------------------------|


Pre-verse Lead (after first chorus)

|-----4---5---7------|-------------------|---7---5------------|
|--------------------|-------------------|-----------5----7b8-|
|-7------------------|---7---------------|-7------------------|
|--------------------|-------9~~--7----9-|--------------------|
|--------------------|-------------------|--------------------|
|--------------------|-------------------|--------------------|

|-----12--14--12h14-14/16---|
|-r7------------------------| bend is held between 3rd and 4th bars
|---------------------------|
|---------------------------|
|---------------------------|
|---------------------------|


Play Main Riff again (1:29), with:

Lead Riff 1
|----------|------------2---|-------------|-----------------|----------------|
|----------|--------3-------|-3-----------|-----------------|----------------|
|----------|------2---------|-------------|---------0---2---|----------------|
|----------|----------------|-------------|-------4---------|-4--------------|
|-rest-----|----------------|-----rest----|-----------------|-----rest-------|
|----------|----------------|-------------|-----------------|----------------|

|------4p0----5-|-----2/4------0-----|------------4-----|
|---------------|-5\3----------------|--------------3---|
|---------------|--------------------|------------------|
|---------------|--------------------|------------------|
|---------------|--------------------|------------------|
|---------------|--------------------|------------------|


Play Chorus again


After Chorus, play Pre-verse Part again. Play Main Riff again with Lead Riff 1


At 3:10, Lead changes to
|--------5-----|---------0-------|
|------3-------|-----------------|
|------------0-|-2---------------|
|--------------|-----4-----------|
|--------------|-----------------|
|--------------|-----------------|

Continue playing main riff and fade out.


Key:
| /  slide up
| \  slide down
| h  hammer-on
| p  pull-off
| ~  vibrato
            
Submit corrections

comments powered by Disqus
↑ Back to top | Tonic Tabs for Love A Diamond. Lyrics for acoustic guitar and electric guitar. Tablatures and chords are parodies/interpretations of the original songs. You may use it for private study, scholarship, research or language learning purposes only