>
 >
Liar 1

Liar 1 Guitar Tabs

Tonic - Liar 1 chords, tabs, tablatures, lyrics

Guitar lessons | Add/correct | Request | Top 50 tabs Artists:  A B C D E F G H I J K L M N O P Q R S T U V W X Y Z 0-9

Liar 1 Guitar Tabs – Tonic

CD, Sheet music, Poster

Do you like Liar 1? Share with your friends now
TabsTabs v2

Tuning: E B E A Db E (both Guitars)

Guitar 1: Tablature  (Acoustic)
Guitar 2: Tablature  (Acoustic/Electric)



Intro & Interlude:

   Guitar 1 & 2:

   ----------------------------|
   ----------------------------|
   ----------------------------|
   ----------------------------|
   -------0--0------0--0-----0-|
   --5^3--0--0-5^3--0--0-5^3-0-|



Verse:

   Guitar 2:

   ---------------------10~~~\--------12~~-|
   --------12~~\---------------------------|
   --------12~~\---------------------------|
   ----------------------------------------|
   ----------------------------------------|
   ----------------------------------------|


Chorus:

   Guitar 1:

   --0----0----0----0----|
   --0----3----3----3----|
   --4----0----2----0----|
   --4----0----0----0----|
   --2----5----0----2----|
   -------5----0----2----|

   --0----0----0----0----0----|
   --0----3----3----3----0----|
   --4----0----2----0----7----|
   --4----0----0----0----0----|
   --2----5----0----2----5----|
   -------5----0----2----5----|


   Guitar 2:

   ----------------------|
   ----------------------|
   --4-------------------|
   --4----5----0----2----|
   --2----5----0----2----|
   -------5----0----2----|

   ---------------------------|
   ---------------------------|
   --4------------------------|
   --4----5----0----2----5----|
   --2----5----0----2----5----|
   -------5----0----2----5----|



Verse:

   Guitar 2:

   ----------------------------|
   ----------------------------|
   ----------------------------|
   -------------------------0~-|
   ---------3^5---------5------|
   --0-3^0-------0-3^0----0----|



Solo:

   Guitar 1:

   --0----0----|
   --3----3----|
   --0----2----| x3
   --0----0----|
   --5----0----|
   --5----0----|


   Guitar 2: (Start on the second to last bar of the interlude)

   -------------------------------------------------------10/12~~--|
   --10----\------------------------7-7-7/9-9-9/13-13-13-----------|
   --10----\---------7-7-7/10-10-10-x-x-x-x-x-x--x--x--x-----------|
   --12----\---------x-x-x--x--x--x-5-5-5/7-7-7/10-10-10-----------|
   ------------------5-5-5/-8--8--8--------------------------------|
   ----------------------------------------------------------------|


   -------------------------------------------------------|
   --12^10----12^10----12^10----12^10----14b-14--12^0-\---|
   --12^10----12^10----12^10----12^10----14b-14--12~~~\---|
   --------12-------12-------12-------12------------------|
   -------------------------------------------------------|
   -------------------------------------------------------|

   ----------15-------15-------15-------15-------------15^12~~~---|
   -/--13b15----13b15----13b15----13b15----13b15-13^10------------|
   ---------------------------------------------------------------|
   ---------------------------------------------------------------|
   ---------------------------------------------------------------|
   ---------------------------------------------------------------|

   ---------------------------------------------------------|
   ---------------------------------------------------------|
   ---------------------------12-10-12b14r12b14--------4----|
   ------3^0-3^5/-------12-10---------------------10~~-4----|
   --3^0----------12-10--------------------------------2----|
   ---------------------------------------------------------|



Outro: (before outro play intro/interlude x2)

   Guitar 1:

   ----------------------------|
   ----------------------------|
   ----------------------------| x2
   --3---3---3---3---3---3---3-|
   --3---3---3---3---3---3---3-|
   --3---3---3---3---3---3---3-|

   --------------------------------------------------------|
   --------------------------------------------------------|
   --------------------------------------------------------|
   ----------3---3---3---3---3---3---3---3---3---3---3---3-|
   -------0--3---3---3---3---3---3---3---3---3---3---3---3-|
   --5^3--0--3---3---3---3---3---3---3---3---3---3---3---3-|

   ----------------------------|
   ----------------------------|
   ----------------------------| x3
   ----------------------------|
   -------0--0------0--0-----0-|
   --5^3--0--0-5^3--0--0-5^3-0-|

   --------------------------0-----|
   --------------------------3-----|
   --------------------------2-----| Let Ring
   --------------------------0-----|
   -------0--0------0--0-----0-----|
   --5^3--0--0-5^3--0--0-5^3-0-----|

   Guitar 2:

   ----------------------------|
   ----------------------------|
   ----------------------------| (repeat until second to last bar)
   ----------------------------|
   -------0--0------0--0-----0-|
   --5^3--0--0-5^3--0--0-5^3-0-|

   -------------------------------|
   -------------------------------|
   -------------------------------| Let Ring
   --------------------------0----|
   -------0--0------0--0-----0----|
   --5^3--0--0-5^3--0--0-5^3-0----|





Comments


Popular Tonic tabs & chords
3 Am Chords
Do You Know Tabs
If You Could Only See Tabs
Soldier's Daughter 1 Tabs
Wicked Soldier 1 Tabs
3 Am Ukulele
Daffodil Ukulele
Let Me Go Ukulele
Rest Your Head Ukulele
Soldiers Daughter Ukulele


Song lyrics



↑ Back to top | Tablatures and chords are parodies/interpretations of the original songs. You may use it for private study, scholarship, research or language learning purposes only
© 2014 AZChords.com Contact us | Privacy policy | DMCA | Add/correct tabs | Request tabs | Top 50 tabs